  0
SECTION
  2
HEADER
  9
$ACADVER
  1
AC1014
  9
$DWGCODEPAGE
  3
ANSI_1252
  9
$INSBASE
 10
0.0
 20
0.0
 30
0.0
  9
$EXTMIN
 10
10503.69074474
 20
2383.08769286
  9
$EXTMAX
 10
11034.07776538
 20
2813.23992925
  9
$LIMMIN
 10
10503.69074474
 20
2383.08769286
  9
$LIMMAX
 10
11034.07776538
 20
2813.23992925
  9
$ORTHOMODE
 70
     0
  9
$REGENMODE
 70
     1
  9
$FILLMODE
 70
     1
  9
$QTEXTMODE
 70
     0
  9
$MIRRTEXT
 70
     1
  9
$DRAGMODE
 70
     2
  9
$LTSCALE
 40
10.0
  9
$OSMODE
 70
     0
  9
$ATTMODE
 70
     1
  9
$TEXTSIZE
 40
3.5
  9
$TRACEWID
 40
1.0
  9
$TEXTSTYLE
  7
STANDARD
  9
$CLAYER
  8
0
  9
$CELTYPE
  6
BYLAYER
  9
$CECOLOR
 62
   256
  9
$DIMSCALE
 40
1.0
  9
$DIMASZ
 40
4.0
  9
$DIMEXO
 40
5.0
  9
$DIMDLI
 40
10.0
  9
$DIMRND
 40
0.0
  9
$DIMDLE
 40
2.0
  9
$DIMEXE
 40
2.0
  9
$DIMTP
 40
0.0
  9
$DIMTM
 40
0.0
  9
$DIMTXT
 40
2.8
  9
$DIMCEN
 40
1.5
  9
$DIMTSZ
 40
0.0
  9
$DIMTOL
 70
     0
  9
$DIMLIM
 70
     0
  9
$DIMTIH
 70
     1
  9
$DIMTOH
 70
     0
  9
$DIMSE1
 70
     0
  9
$DIMSE2
 70
     0
  9
$DIMTAD
 70
     1
  9
$DIMZIN
 70
     8
  9
$DIMBLK
  1

  9
$DIMASO
 70
     1
  9
$DIMSHO
 70
     1
  9
$DIMPOST
  1

  9
$DIMAPOST
  1

  9
$DIMALT
 70
     0
  9
$DIMALTD
 70
     2
  9
$DIMALTF
 40
25.4
  9
$DIMLFAC
 40
1.0
  9
$DIMTOFL
 70
     0
  9
$DIMTVP
 40
0.0
  9
$DIMTIX
 70
     0
  9
$DIMSOXD
 70
     0
  9
$DIMSAH
 70
     0
  9
$DIMBLK1
  1

  9
$DIMBLK2
  1

  9
$DIMSTYLE
  2
*UNNAMED
  9
$DIMCLRD
 70
     9
  9
$DIMCLRE
 70
     9
  9
$DIMCLRT
 70
     7
  9
$DIMTFAC
 40
1.0
  9
$DIMGAP
 40
0.09
  9
$DIMUNIT
 70
     2
  9
$LUNITS
 70
     2
  9
$LUPREC
 70
     6
  9
$AXISMODE
 70
     0
  9
$AXISUNIT
 10
0.0
 20
0.0
  9
$SKETCHINC
 40
0.1
  9
$FILLETRAD
 40
0.0
  9
$AUNITS
 70
     0
  9
$AUPREC
 70
     0
  9
$MENU
  1
ACAD
  9
$ELEVATION
 40
0.0
  9
$PELEVATION
 40
0.0
  9
$THICKNESS
 40
0.0
  9
$LIMCHECK
 70
     0
  9
$BLIPMODE
 70
     1
  9
$CHAMFERA
 40
0.0
  9
$CHAMFERB
 40
0.0
  9
$SKPOLY
 70
     1
  9
$TDCREATE
 40
2459053.0000000000
  9
$TDUPDATE
 40
2459053.0000000000
  9
$TDINDWG
 40
0.0
  9
$TDUSRTIMER
 40
0.0
  9
$USRTIMER
 70
     1
  9
$ANGBASE
 50
0.0
  9
$ANGDIR
 70
     0
  9
$PDMODE
 70
     0
  9
$PDSIZE
 40
0.0
  9
$PLINEWID
 40
0.0
  9
$COORDS
 70
     2
  9
$SPLFRAME
 70
     0
  9
$SPLINETYPE
 70
     6
  9
$SPLINESEGS
 70
     8
  9
$ATTDIA
 70
     1
  9
$ATTREQ
 70
     1
  9
$HANDLING
 70
     1
  9
$HANDSEED
  5
     3A3
  9
$SURFTAB1
 70
     6
  9
$SURFTAB2
 70
     6
  9
$SURFTYPE
 70
     6
  9
$SURFU
 70
     6
  9
$SURFV
 70
     6
  9
$UCSNAME
  2

  9
$UCSORG
 10
0.0
 20
0.0
 30
0.0
  9
$UCSXDIR
 10
1.0
 20
0.0
 30
0.0
  9
$UCSYDIR
 10
0.0
 20
1.0
 30
0.0
  9
$PUCSNAME
  2

  9
$PUCSORG
 10
0.0
 20
0.0
 30
0.0
  9
$PUCSXDIR
 10
1.0
 20
0.0
 30
0.0
  9
$PUCSYDIR
 10
0.0
 20
1.0
 30
0.0
  9
$USERI1
 70
     0
  9
$USERI2
 70
     0
  9
$USERI3
 70
     0
  9
$USERI4
 70
     0
  9
$USERI5
 70
     0
  9
$USERR1
 40
0.0
  9
$USERR2
 40
0.0
  9
$USERR3
 40
0.0
  9
$USERR4
 40
0.0
  9
$USERR5
 40
0.0
  9
$WORLDVIEW
 70
     1
  9
$SHADEDGE
 70
     3
  9
$SHADEDIF
 70
    70
  9
$TILEMODE
 70
     1
  9
$MAXACTVP
 70
    16
  9
$PINSBASE
 10
0.0
 20
0.0
 30
0.0
  9
$PLIMCHECK
 70
     0
  9
$PEXTMIN
 10
1.0000000000000E+20
 20
1.0000000000000E+20
 30
1.0000000000000E+20
  9
$PEXTMAX
 10
-1.0000000000000E+20
 20
-1.0000000000000E+20
 30
-1.0000000000000E+20
  9
$PLIMMIN
 10
0.0
 20
0.0
  9
$UNITMODE
 70
     0
  9
$VISRETAIN
 70
     0
  9
$MEASUREMENT
 70
     1
  0
ENDSEC
  0
SECTION
  2
TABLES
  0
TABLE
  2
VPORT
  5
1B8
100
AcDbSymbolTable
 70
     1
  0
ENDTAB
  0
TABLE
  2
STYLE
  5
1B9
100
AcDbSymbolTable
 70
     2
  0
STYLE
  5
1BA
100
AcDbSymbolTableRecord
100
AcDbTextStyleTableRecord
  2
STANDARD
 70
     0
 40
0.0
 41
1.0
 50
0.0
 71
     0
 42
3.5
  3
MONOTXT
  4

  0
STYLE
  5
1BB
100
AcDbSymbolTableRecord
100
AcDbTextStyleTableRecord
  2
SYMAP
 70
     0
 40
0.0
 41
1.0
 50
0.0
 71
     0
 42
3.5
  3
SYMAP
  4

  0
STYLE
  5
1BC
100
AcDbSymbolTableRecord
100
AcDbTextStyleTableRecord
  2
CADWORK1
 70
     0
 40
0.0
 41
1.0
 50
0.0
 71
     0
 42
3.5
  3
MONOTXT
  4

  0
STYLE
  5
1BD
100
AcDbSymbolTableRecord
100
AcDbTextStyleTableRecord
  2
MONOTXT
 70
     0
 40
0.0
 41
1.0
 50
0.0
 71
     0
 42
3.5
  3
MONOTXT
  4

  0
ENDTAB
  0
TABLE
  2
LTYPE
  5
1BE
100
AcDbSymbolTable
 70
    11
  0
LTYPE
  5
1BF
100
AcDbSymbolTableRecord
100
AcDbLinetypeTableRecord
  2
BYBLOCK
 70
    64
  3

 72
    65
 73
     0
 40
0.0
  0
LTYPE
  5
1C0
100
AcDbSymbolTableRecord
100
AcDbLinetypeTableRecord
  2
BYLAYER
 70
    64
  3

 72
    65
 73
     0
 40
0.0
  0
LTYPE
  5
1C1
100
AcDbSymbolTableRecord
100
AcDbLinetypeTableRecord
  2
CONTINUOUS
 70
    64
  3
Solid line
 72
    65
 73
     0
 40
0.0
  0
LTYPE
  5
1C2
100
AcDbSymbolTableRecord
100
AcDbLinetypeTableRecord
  2
DOT2
 70
    64
  3
...............................................
 72
    65
 73
     2
 40
1.25
 49
0.0
 74
     0
 49
-1.25
 74
     0
  0
LTYPE
  5
1C3
100
AcDbSymbolTableRecord
100
AcDbLinetypeTableRecord
  2
DASHDOT
 70
    64
  3
 __ . __ . __ . __ . __ . __ . __ . __ . __ . __
 72
    65
 73
     4
 40
10.0
 49
5.0
 74
     0
 49
-2.5
 74
     0
 49
0.0
 74
     0
 49
-2.5
 74
     0
  0
LTYPE
  5
1C4
100
AcDbSymbolTableRecord
100
AcDbLinetypeTableRecord
  2
DAL
 70
    64
  3
Solid line (for MAPS)
 72
    65
 73
     0
 40
0.0
  0
LTYPE
  5
1C5
100
AcDbSymbolTableRecord
100
AcDbLinetypeTableRecord
  2
MUR
 70
    64
  3
Solid line (for MAPS)
 72
    65
 73
     0
 40
0.0
  0
LTYPE
  5
1C6
100
AcDbSymbolTableRecord
100
AcDbLinetypeTableRecord
  2
SOM
 70
    64
  3
Solid line (for MAPS)
 72
    65
 73
     0
 40
0.0
  0
LTYPE
  5
1C7
100
AcDbSymbolTableRecord
100
AcDbLinetypeTableRecord
  2
COL
 70
    64
  3
Solid line (for MAPS)
 72
    65
 73
     0
 40
0.0
  0
LTYPE
  5
1C8
100
AcDbSymbolTableRecord
100
AcDbLinetypeTableRecord
  2
LGN
 70
    64
  3
Solid line (for MAPS)
 72
    65
 73
     0
 40
0.0
  0
LTYPE
  5
1C9
100
AcDbSymbolTableRecord
100
AcDbLinetypeTableRecord
  2
PNT
 70
    64
  3
Solid line (for MAPS)
 72
    65
 73
     0
 40
0.0
  0
ENDTAB
  0
TABLE
  2
LAYER
  5
1CA
100
AcDbSymbolTable
 70
    17
  0
LAYER
  5
1CB
100
AcDbSymbolTableRecord
100
AcDbLayerTableRecord
  2
0
 70
     0
 62
     1
  6
CONTINUOUS
370
    -3
  0
LAYER
  5
1CC
100
AcDbSymbolTableRecord
100
AcDbLayerTableRecord
  2
Esc 1_1
 70
     0
 62
     7
  6
CONTINUOUS
370
    18
  0
LAYER
  5
1CD
100
AcDbSymbolTableRecord
100
AcDbLayerTableRecord
  2
Esc 1_2
 70
     0
 62
     7
  6
CONTINUOUS
370
    18
  0
LAYER
  5
1CE
100
AcDbSymbolTableRecord
100
AcDbLayerTableRecord
  2
Esc 1_5
 70
     0
 62
     7
  6
CONTINUOUS
370
    18
  0
LAYER
  5
1CF
100
AcDbSymbolTableRecord
100
AcDbLayerTableRecord
  2
Esc 1_10
 70
     0
 62
     7
  6
CONTINUOUS
370
    18
  0
LAYER
  5
1D0
100
AcDbSymbolTableRecord
100
AcDbLayerTableRecord
  2
Esc 1_20
 70
     0
 62
     7
  6
CONTINUOUS
370
    18
  0
LAYER
  5
1D1
100
AcDbSymbolTableRecord
100
AcDbLayerTableRecord
  2
Esc 1_25
 70
     0
 62
     7
  6
CONTINUOUS
370
    18
  0
LAYER
  5
1D2
100
AcDbSymbolTableRecord
100
AcDbLayerTableRecord
  2
Esc 1_50
 70
     0
 62
     7
  6
CONTINUOUS
370
    18
  0
LAYER
  5
1D3
100
AcDbSymbolTableRecord
100
AcDbLayerTableRecord
  2
Esc 1_75
 70
     0
 62
     7
  6
CONTINUOUS
370
    18
  0
LAYER
  5
1D4
100
AcDbSymbolTableRecord
100
AcDbLayerTableRecord
  2
Esc 1_100
 70
     0
 62
     7
  6
CONTINUOUS
370
    18
  0
LAYER
  5
1D5
100
AcDbSymbolTableRecord
100
AcDbLayerTableRecord
  2
Esc 1_125
 70
     0
 62
     7
  6
CONTINUOUS
370
    18
  0
LAYER
  5
1D6
100
AcDbSymbolTableRecord
100
AcDbLayerTableRecord
  2
Esc 1_150
 70
     0
 62
     7
  6
CONTINUOUS
370
    18
  0
LAYER
  5
1D7
100
AcDbSymbolTableRecord
100
AcDbLayerTableRecord
  2
Esc 1_175
 70
     0
 62
     7
  6
CONTINUOUS
370
    18
  0
LAYER
  5
1D8
100
AcDbSymbolTableRecord
100
AcDbLayerTableRecord
  2
Esc 1_200
 70
     0
 62
     7
  6
CONTINUOUS
370
    18
  0
LAYER
  5
1D9
100
AcDbSymbolTableRecord
100
AcDbLayerTableRecord
  2
Esc 1_250
 70
     0
 62
     7
  6
CONTINUOUS
370
    18
  0
LAYER
  5
1DA
100
AcDbSymbolTableRecord
100
AcDbLayerTableRecord
  2
Esc 1_500
 70
     0
 62
     7
  6
CONTINUOUS
370
    18
  0
LAYER
  5
1DB
100
AcDbSymbolTableRecord
100
AcDbLayerTableRecord
  2
Esc 1_1000
 70
     0
 62
     7
  6
CONTINUOUS
370
    18
  0
LAYER
  5
1DC
100
AcDbSymbolTableRecord
100
AcDbLayerTableRecord
  2
Layer
 70
     0
 62
     7
  6
CONTINUOUS
370
    18
  0
ENDTAB
  0
TABLE
  2
VIEW
  5
1DD
100
AcDbSymbolTable
 70
     0
  0
ENDTAB
  0
TABLE
  2
UCS
  5
1DE
100
AcDbSymbolTable
 70
     0
  0
ENDTAB
  0
TABLE
  2
APPID
  5
1DF
100
AcDbSymbolTable
 70
     1
  0
APPID
  5
1E0
100
AcDbSymbolTableRecord
100
AcDbRegAppTableRecord
  2
ACAD
 70
     0
  0
ENDTAB
  0
TABLE
  2
DIMSTYLE
  5
1E1
100
AcDbSymbolTable
 70
     0
  0
ENDTAB
  0
TABLE
  2
BLOCK_RECORD
  5
1E2
100
AcDbSymbolTable
 70
     0
  0
BLOCK_RECORD
  5
1E3
100
AcDbSymbolTableRecord
100
AcDbBlockTableRecord
  2
*MODEL_SPACE
  0
BLOCK_RECORD
  5
1E4
100
AcDbSymbolTableRecord
100
AcDbBlockTableRecord
  2
*PAPER_SPACE
  0
BLOCK_RECORD
  5
1E5
100
AcDbSymbolTableRecord
100
AcDbBlockTableRecord
  2
CDWK_EXTR_0
  0
BLOCK_RECORD
  5
1E6
100
AcDbSymbolTableRecord
100
AcDbBlockTableRecord
  2
CDWK_EXTR_1D
  0
BLOCK_RECORD
  5
1E7
100
AcDbSymbolTableRecord
100
AcDbBlockTableRecord
  2
CDWK_EXTR_1G
  0
BLOCK_RECORD
  5
1E8
100
AcDbSymbolTableRecord
100
AcDbBlockTableRecord
  2
CDWK_EXTR_2
  0
BLOCK_RECORD
  5
1E9
100
AcDbSymbolTableRecord
100
AcDbBlockTableRecord
  2
CDWK_EXTR_3
  0
BLOCK_RECORD
  5
1EA
100
AcDbSymbolTableRecord
100
AcDbBlockTableRecord
  2
CDWK_EXTR_4
  0
BLOCK_RECORD
  5
1EB
100
AcDbSymbolTableRecord
100
AcDbBlockTableRecord
  2
CDWK_PTTYP0
  0
BLOCK_RECORD
  5
1EC
100
AcDbSymbolTableRecord
100
AcDbBlockTableRecord
  2
CDWK_PTTYP1
  0
BLOCK_RECORD
  5
1ED
100
AcDbSymbolTableRecord
100
AcDbBlockTableRecord
  2
CDWK_PTTYP2
  0
BLOCK_RECORD
  5
1EE
100
AcDbSymbolTableRecord
100
AcDbBlockTableRecord
  2
CDWK_PTTYP3
  0
BLOCK_RECORD
  5
1EF
100
AcDbSymbolTableRecord
100
AcDbBlockTableRecord
  2
CDWK_PTTYP4
  0
BLOCK_RECORD
  5
1F0
100
AcDbSymbolTableRecord
100
AcDbBlockTableRecord
  2
CDWK_PTTYP5
  0
BLOCK_RECORD
  5
1F1
100
AcDbSymbolTableRecord
100
AcDbBlockTableRecord
  2
CDWK_PTTYP6
  0
BLOCK_RECORD
  5
1F2
100
AcDbSymbolTableRecord
100
AcDbBlockTableRecord
  2
CDWK_PTTYP7
  0
BLOCK_RECORD
  5
1F3
100
AcDbSymbolTableRecord
100
AcDbBlockTableRecord
  2
CDWK_PTTYP8
  0
BLOCK_RECORD
  5
1F4
100
AcDbSymbolTableRecord
100
AcDbBlockTableRecord
  2
CDWK_PTTYP9
  0
BLOCK_RECORD
  5
1F5
100
AcDbSymbolTableRecord
100
AcDbBlockTableRecord
  2
CDWK_PTTYP10
  0
BLOCK_RECORD
  5
1F6
100
AcDbSymbolTableRecord
100
AcDbBlockTableRecord
  2
CDWK_PTTYP11
  0
BLOCK_RECORD
  5
1F7
100
AcDbSymbolTableRecord
100
AcDbBlockTableRecord
  2
CDWK_PTTYP12
  0
BLOCK_RECORD
  5
1F8
100
AcDbSymbolTableRecord
100
AcDbBlockTableRecord
  2
CDWK_PTTYP13
  0
BLOCK_RECORD
  5
1F9
100
AcDbSymbolTableRecord
100
AcDbBlockTableRecord
  2
CDWK_PTTYP14
  0
BLOCK_RECORD
  5
1FA
100
AcDbSymbolTableRecord
100
AcDbBlockTableRecord
  2
CDWK_PTTYP15
  0
BLOCK_RECORD
  5
1FB
100
AcDbSymbolTableRecord
100
AcDbBlockTableRecord
  2
CDWK_PTTYP16
  0
BLOCK_RECORD
  5
1FC
100
AcDbSymbolTableRecord
100
AcDbBlockTableRecord
  2
CDWK_PTTYP17
  0
BLOCK_RECORD
  5
1FD
100
AcDbSymbolTableRecord
100
AcDbBlockTableRecord
  2
CDWK_PTTYP18
  0
BLOCK_RECORD
  5
1FE
100
AcDbSymbolTableRecord
100
AcDbBlockTableRecord
  2
CDWK_PTTYP19
  0
BLOCK_RECORD
  5
1FF
100
AcDbSymbolTableRecord
100
AcDbBlockTableRecord
  2
CDWK_PTTYP20
  0
BLOCK_RECORD
  5
200
100
AcDbSymbolTableRecord
100
AcDbBlockTableRecord
  2
CDWK_PTTYP21
  0
BLOCK_RECORD
  5
201
100
AcDbSymbolTableRecord
100
AcDbBlockTableRecord
  2
CDWK_PTTYP22
  0
BLOCK_RECORD
  5
202
100
AcDbSymbolTableRecord
100
AcDbBlockTableRecord
  2
CDWK_PTTYP23
  0
BLOCK_RECORD
  5
203
100
AcDbSymbolTableRecord
100
AcDbBlockTableRecord
  2
CDWK_PTTYP24
  0
BLOCK_RECORD
  5
204
100
AcDbSymbolTableRecord
100
AcDbBlockTableRecord
  2
CDWK_PTTYP25
  0
BLOCK_RECORD
  5
205
100
AcDbSymbolTableRecord
100
AcDbBlockTableRecord
  2
CDWK_PTTYP26
  0
BLOCK_RECORD
  5
206
100
AcDbSymbolTableRecord
100
AcDbBlockTableRecord
  2
CDWK_PTTYP27
  0
BLOCK_RECORD
  5
207
100
AcDbSymbolTableRecord
100
AcDbBlockTableRecord
  2
CDWK_PTTYP28
  0
BLOCK_RECORD
  5
208
100
AcDbSymbolTableRecord
100
AcDbBlockTableRecord
  2
CDWK_PTTYP29
  0
BLOCK_RECORD
  5
209
100
AcDbSymbolTableRecord
100
AcDbBlockTableRecord
  2
CDWK_PTTYP30
  0
BLOCK_RECORD
  5
20A
100
AcDbSymbolTableRecord
100
AcDbBlockTableRecord
  2
CDWK_PTTYP31
  0
BLOCK_RECORD
  5
20B
100
AcDbSymbolTableRecord
100
AcDbBlockTableRecord
  2
CDWK_PTTYP32
  0
BLOCK_RECORD
  5
20C
100
AcDbSymbolTableRecord
100
AcDbBlockTableRecord
  2
CDWK_PTTYP33
  0
BLOCK_RECORD
  5
20D
100
AcDbSymbolTableRecord
100
AcDbBlockTableRecord
  2
CDWK_PTTYP34
  0
BLOCK_RECORD
  5
20E
100
AcDbSymbolTableRecord
100
AcDbBlockTableRecord
  2
CDWK_PTTYP35
  0
BLOCK_RECORD
  5
20F
100
AcDbSymbolTableRecord
100
AcDbBlockTableRecord
  2
CDWK_PTTYP36
  0
BLOCK_RECORD
  5
210
100
AcDbSymbolTableRecord
100
AcDbBlockTableRecord
  2
CDWK_PTTYP37
  0
BLOCK_RECORD
  5
211
100
AcDbSymbolTableRecord
100
AcDbBlockTableRecord
  2
CDWK_PTTYP38
  0
ENDTAB
  0
ENDSEC
  0
SECTION
  2
BLOCKS
  0
BLOCK
  5
212
100
AcDbEntity
  8
0
100
AcDbBlockBegin
  2
*MODEL_SPACE
 70
     0
 10
0.0
 20
0.0
 30
0.0
  3
*MODEL_SPACE
  1

  0
ENDBLK
  5
213
100
AcDbEntity
100
AcDbBlockEnd
  0
BLOCK
  5
214
100
AcDbEntity
  8
0
100
AcDbBlockBegin
  2
*PAPER_SPACE
 70
     0
 10
0.0
 20
0.0
 30
0.0
  3
*PAPER_SPACE
  1

  0
ENDBLK
  5
215
100
AcDbEntity
100
AcDbBlockEnd
  0
BLOCK
  5
216
100
AcDbEntity
  8
0
100
AcDbBlockBegin
  2
CDWK_EXTR_0
 70
     0
 10
0.0
 20
0.0
 30
0.0
  3
CDWK_EXTR_0
  1

  4
Cadwork line-extremity
  0
LINE
  5
217
100
AcDbEntity
  8
0
 62
     0
370
    -2
100
AcDbLine
 10
0.0
 20
0.0
 30
0.0
 11
2.0
 21
0.5
 31
0.0
  0
LINE
  5
218
100
AcDbEntity
  8
0
 62
     0
370
    -2
100
AcDbLine
 10
0.0
 20
0.0
 30
0.0
 11
2.0
 21
-0.5
 31
0.0
  0
LINE
  5
219
100
AcDbEntity
  8
0
 62
     0
370
    -2
100
AcDbLine
 10
2.0
 20
0.5
 30
0.0
 11
2.0
 21
-0.5
 31
0.0
  0
ENDBLK
  5
21A
100
AcDbEntity
100
AcDbBlockEnd
  0
BLOCK
  5
21B
100
AcDbEntity
  8
0
100
AcDbBlockBegin
  2
CDWK_EXTR_1D
 70
     0
 10
0.0
 20
0.0
 30
0.0
  3
CDWK_EXTR_1D
  1

  4
Cadwork line-extremity
  0
LINE
  5
21C
100
AcDbEntity
  8
0
 62
     0
370
    -2
100
AcDbLine
 10
0.0
 20
0.0
 30
0.0
 11
0.0
 21
1.0
 31
0.0
  0
LINE
  5
21D
100
AcDbEntity
  8
0
 62
     0
370
    -2
100
AcDbLine
 10
0.0
 20
1.0
 30
0.0
 11
0.5
 21
1.5
 31
0.0
  0
LINE
  5
21E
100
AcDbEntity
  8
0
 62
     0
370
    -2
100
AcDbLine
 10
0.5
 20
1.5
 30
0.0
 11
1.5
 21
1.5
 31
0.0
  0
ENDBLK
  5
21F
100
AcDbEntity
100
AcDbBlockEnd
  0
BLOCK
  5
220
100
AcDbEntity
  8
0
100
AcDbBlockBegin
  2
CDWK_EXTR_1G
 70
     0
 10
0.0
 20
0.0
 30
0.0
  3
CDWK_EXTR_1G
  1

  4
Cadwork line-extremity
  0
LINE
  5
221
100
AcDbEntity
  8
0
 62
     0
370
    -2
100
AcDbLine
 10
0.0
 20
0.0
 30
0.0
 11
0.0
 21
-1.0
 31
0.0
  0
LINE
  5
222
100
AcDbEntity
  8
0
 62
     0
370
    -2
100
AcDbLine
 10
0.0
 20
-1.0
 30
0.0
 11
0.5
 21
-1.5
 31
0.0
  0
LINE
  5
223
100
AcDbEntity
  8
0
 62
     0
370
    -2
100
AcDbLine
 10
0.5
 20
-1.5
 30
0.0
 11
1.5
 21
-1.5
 31
0.0
  0
ENDBLK
  5
224
100
AcDbEntity
100
AcDbBlockEnd
  0
BLOCK
  5
225
100
AcDbEntity
  8
0
100
AcDbBlockBegin
  2
CDWK_EXTR_2
 70
     0
 10
0.0
 20
0.0
 30
0.0
  3
CDWK_EXTR_2
  1

  4
Cadwork line-extremity
  0
SOLID
  5
226
100
AcDbEntity
  8
0
 62
     0
100
AcDbTrace
 10
0.0
 20
0.0
 11
2.0
 21
0.5
 12
2.0
 22
-0.5
 13
2.0
 23
-0.5
  0
ENDBLK
  5
227
100
AcDbEntity
100
AcDbBlockEnd
  0
BLOCK
  5
228
100
AcDbEntity
  8
0
100
AcDbBlockBegin
  2
CDWK_EXTR_3
 70
     0
 10
0.0
 20
0.0
 30
0.0
  3
CDWK_EXTR_3
  1

  4
Cadwork line-extremity
  0
SOLID
  5
229
100
AcDbEntity
  8
0
 62
     0
100
AcDbTrace
 10
0.0
 20
0.0
 11
2.0
 21
0.5
 12
2.0
 22
-0.5
 13
2.0
 23
-0.5
  0
LINE
  5
22A
100
AcDbEntity
  8
0
 62
     0
370
    -2
100
AcDbLine
 10
0.0
 20
1.0
 30
0.0
 11
0.0
 21
-1.0
 31
0.0
  0
ENDBLK
  5
22B
100
AcDbEntity
100
AcDbBlockEnd
  0
BLOCK
  5
22C
100
AcDbEntity
  8
0
100
AcDbBlockBegin
  2
CDWK_EXTR_4
 70
     0
 10
0.0
 20
0.0
 30
0.0
  3
CDWK_EXTR_4
  1

  4
Cadwork line-extremity
  0
HATCH
  5
22D
100
AcDbEntity
  8
0
 62
     0
370
    -2
100
AcDbHatch
 10
0.0
 20
0.0
 30
0.0
210
0.0
220
0.0
230
1.0
  2
SOLID
 70
     1
 71
     0
 91
        1
 92
        1
 93
        1
 72
     2
 10
0.0
 20
0.0
 40
0.5
 50
0.0
 51
360.0
 73
     1
 97
        0
 75
     0
 76
     1
 98
        1
 10
0.0
 20
0.0
  0
ENDBLK
  5
22E
100
AcDbEntity
100
AcDbBlockEnd
  0
BLOCK
  5
22F
100
AcDbEntity
  8
0
100
AcDbBlockBegin
  2
CDWK_PTTYP0
 70
     0
 10
0.0
 20
0.0
 30
0.0
  3
CDWK_PTTYP0
  1

  4
Cadwork point
  0
POINT
  5
230
100
AcDbEntity
  8
0
 62
     0
100
AcDbPoint
 10
0.0
 20
0.0
 30
0.0
  0
ENDBLK
  5
231
100
AcDbEntity
100
AcDbBlockEnd
  0
BLOCK
  5
232
100
AcDbEntity
  8
0
100
AcDbBlockBegin
  2
CDWK_PTTYP1
 70
     0
 10
0.0
 20
0.0
 30
0.0
  3
CDWK_PTTYP1
  1

  4
Cadwork node
  0
LINE
  5
233
100
AcDbEntity
  8
0
 62
     0
370
    -2
100
AcDbLine
 10
-0.5
 20
0.5
 30
0.0
 11
0.5
 21
0.5
 31
0.0
  0
LINE
  5
234
100
AcDbEntity
  8
0
 62
     0
370
    -2
100
AcDbLine
 10
0.5
 20
0.5
 30
0.0
 11
0.5
 21
-0.5
 31
0.0
  0
LINE
  5
235
100
AcDbEntity
  8
0
 62
     0
370
    -2
100
AcDbLine
 10
0.5
 20
-0.5
 30
0.0
 11
-0.5
 21
-0.5
 31
0.0
  0
LINE
  5
236
100
AcDbEntity
  8
0
 62
     0
370
    -2
100
AcDbLine
 10
-0.5
 20
-0.5
 30
0.0
 11
-0.5
 21
0.5
 31
0.0
  0
ENDBLK
  5
237
100
AcDbEntity
100
AcDbBlockEnd
  0
BLOCK
  5
238
100
AcDbEntity
  8
0
100
AcDbBlockBegin
  2
CDWK_PTTYP2
 70
     0
 10
0.0
 20
0.0
 30
0.0
  3
CDWK_PTTYP2
  1

  4
Cadwork node
  0
LINE
  5
239
100
AcDbEntity
  8
0
 62
     0
370
    -2
100
AcDbLine
 10
0.0
 20
0.5
 30
0.0
 11
0.0
 21
-0.5
 31
0.0
  0
LINE
  5
23A
100
AcDbEntity
  8
0
 62
     0
370
    -2
100
AcDbLine
 10
-0.5
 20
0.0
 30
0.0
 11
0.5
 21
0.0
 31
0.0
  0
ENDBLK
  5
23B
100
AcDbEntity
100
AcDbBlockEnd
  0
BLOCK
  5
23C
100
AcDbEntity
  8
0
100
AcDbBlockBegin
  2
CDWK_PTTYP3
 70
     0
 10
0.0
 20
0.0
 30
0.0
  3
CDWK_PTTYP3
  1

  4
Cadwork node
  0
CIRCLE
  5
23D
100
AcDbEntity
  8
0
 62
     0
370
    -2
100
AcDbCircle
 10
0.0
 20
0.0
 30
0.0
 40
0.5
  0
ENDBLK
  5
23E
100
AcDbEntity
100
AcDbBlockEnd
  0
BLOCK
  5
23F
100
AcDbEntity
  8
0
100
AcDbBlockBegin
  2
CDWK_PTTYP4
 70
     0
 10
0.0
 20
0.0
 30
0.0
  3
CDWK_PTTYP4
  1

  4
Cadwork node
  0
HATCH
  5
240
100
AcDbEntity
  8
0
 62
     0
370
    -2
100
AcDbHatch
 10
0.0
 20
0.0
 30
0.0
210
0.0
220
0.0
230
1.0
  2
SOLID
 70
     1
 71
     0
 91
        1
 92
        1
 93
        1
 72
     2
 10
0.0
 20
0.0
 40
0.5
 50
0.0
 51
360.0
 73
     1
 97
        0
 75
     0
 76
     1
 98
        1
 10
0.0
 20
0.0
  0
ENDBLK
  5
241
100
AcDbEntity
100
AcDbBlockEnd
  0
BLOCK
  5
242
100
AcDbEntity
  8
0
100
AcDbBlockBegin
  2
CDWK_PTTYP5
 70
     0
 10
0.0
 20
0.0
 30
0.0
  3
CDWK_PTTYP5
  1

  4
Cadwork node
  0
LINE
  5
243
100
AcDbEntity
  8
0
 62
     0
370
    -2
100
AcDbLine
 10
-0.5
 20
0.5
 30
0.0
 11
0.5
 21
0.5
 31
0.0
  0
LINE
  5
244
100
AcDbEntity
  8
0
 62
     0
370
    -2
100
AcDbLine
 10
0.5
 20
0.5
 30
0.0
 11
0.5
 21
-0.5
 31
0.0
  0
LINE
  5
245
100
AcDbEntity
  8
0
 62
     0
370
    -2
100
AcDbLine
 10
0.5
 20
-0.5
 30
0.0
 11
-0.5
 21
-0.5
 31
0.0
  0
LINE
  5
246
100
AcDbEntity
  8
0
 62
     0
370
    -2
100
AcDbLine
 10
-0.5
 20
-0.5
 30
0.0
 11
-0.5
 21
0.5
 31
0.0
  0
SOLID
  5
247
100
AcDbEntity
  8
0
 62
     0
100
AcDbTrace
 10
-0.5
 20
-0.5
 11
-0.5
 21
0.0
 12
0.0
 22
-0.5
 13
0.0
 23
0.0
  0
SOLID
  5
248
100
AcDbEntity
  8
0
 62
     0
100
AcDbTrace
 10
0.0
 20
0.0
 11
0.0
 21
0.5
 12
0.5
 22
0.0
 13
0.5
 23
0.5
  0
ENDBLK
  5
249
100
AcDbEntity
100
AcDbBlockEnd
  0
BLOCK
  5
24A
100
AcDbEntity
  8
0
100
AcDbBlockBegin
  2
CDWK_PTTYP6
 70
     0
 10
0.0
 20
0.0
 30
0.0
  3
CDWK_PTTYP6
  1

  4
Cadwork node
  0
LINE
  5
24B
100
AcDbEntity
  8
0
 62
     0
370
    -2
100
AcDbLine
 10
-0.5
 20
0.5
 30
0.0
 11
0.5
 21
0.5
 31
0.0
  0
LINE
  5
24C
100
AcDbEntity
  8
0
 62
     0
370
    -2
100
AcDbLine
 10
0.5
 20
0.5
 30
0.0
 11
0.5
 21
-0.5
 31
0.0
  0
LINE
  5
24D
100
AcDbEntity
  8
0
 62
     0
370
    -2
100
AcDbLine
 10
0.5
 20
-0.5
 30
0.0
 11
-0.5
 21
-0.5
 31
0.0
  0
LINE
  5
24E
100
AcDbEntity
  8
0
 62
     0
370
    -2
100
AcDbLine
 10
-0.5
 20
-0.5
 30
0.0
 11
-0.5
 21
0.5
 31
0.0
  0
SOLID
  5
24F
100
AcDbEntity
  8
0
 62
     0
100
AcDbTrace
 10
-0.5
 20
-0.5
 11
-0.5
 21
0.5
 12
0.5
 22
0.5
 13
0.5
 23
0.5
  0
ENDBLK
  5
250
100
AcDbEntity
100
AcDbBlockEnd
  0
BLOCK
  5
251
100
AcDbEntity
  8
0
100
AcDbBlockBegin
  2
CDWK_PTTYP7
 70
     0
 10
0.0
 20
0.0
 30
0.0
  3
CDWK_PTTYP7
  1

  4
Cadwork node
  0
LINE
  5
252
100
AcDbEntity
  8
0
 62
     0
370
    -2
100
AcDbLine
 10
-0.5
 20
0.5
 30
0.0
 11
0.5
 21
0.5
 31
0.0
  0
LINE
  5
253
100
AcDbEntity
  8
0
 62
     0
370
    -2
100
AcDbLine
 10
0.5
 20
0.5
 30
0.0
 11
0.5
 21
-0.5
 31
0.0
  0
LINE
  5
254
100
AcDbEntity
  8
0
 62
     0
370
    -2
100
AcDbLine
 10
0.5
 20
-0.5
 30
0.0
 11
-0.5
 21
-0.5
 31
0.0
  0
LINE
  5
255
100
AcDbEntity
  8
0
 62
     0
370
    -2
100
AcDbLine
 10
-0.5
 20
-0.5
 30
0.0
 11
-0.5
 21
0.5
 31
0.0
  0
LINE
  5
256
100
AcDbEntity
  8
0
 62
     0
370
    -2
100
AcDbLine
 10
0.0
 20
0.5
 30
0.0
 11
0.0
 21
-0.5
 31
0.0
  0
LINE
  5
257
100
AcDbEntity
  8
0
 62
     0
370
    -2
100
AcDbLine
 10
-0.5
 20
0.0
 30
0.0
 11
0.5
 21
0.0
 31
0.0
  0
ENDBLK
  5
258
100
AcDbEntity
100
AcDbBlockEnd
  0
BLOCK
  5
259
100
AcDbEntity
  8
0
100
AcDbBlockBegin
  2
CDWK_PTTYP8
 70
     0
 10
0.0
 20
0.0
 30
0.0
  3
CDWK_PTTYP8
  1

  4
Cadwork node
  0
SOLID
  5
25A
100
AcDbEntity
  8
0
 62
     0
100
AcDbTrace
 10
-0.5
 20
0.5
 11
0.5
 21
0.5
 12
-0.5
 22
-0.5
 13
0.5
 23
-0.5
  0
ENDBLK
  5
25B
100
AcDbEntity
100
AcDbBlockEnd
  0
BLOCK
  5
25C
100
AcDbEntity
  8
0
100
AcDbBlockBegin
  2
CDWK_PTTYP9
 70
     0
 10
0.0
 20
0.0
 30
0.0
  3
CDWK_PTTYP9
  1

  4
Cadwork node
  0
CIRCLE
  5
25D
100
AcDbEntity
  8
0
 62
     0
370
    -2
100
AcDbCircle
 10
0.0
 20
0.0
 30
0.0
 40
0.5
  0
CIRCLE
  5
25E
100
AcDbEntity
  8
0
 62
     0
370
    -2
100
AcDbCircle
 10
0.0
 20
0.0
 30
0.0
 40
0.16666667
  0
ENDBLK
  5
25F
100
AcDbEntity
100
AcDbBlockEnd
  0
BLOCK
  5
260
100
AcDbEntity
  8
0
100
AcDbBlockBegin
  2
CDWK_PTTYP10
 70
     0
 10
0.0
 20
0.0
 30
0.0
  3
CDWK_PTTYP10
  1

  4
Cadwork node
  0
CIRCLE
  5
261
100
AcDbEntity
  8
0
 62
     0
370
    -2
100
AcDbCircle
 10
0.0
 20
0.0
 30
0.0
 40
0.5
  0
ENDBLK
  5
262
100
AcDbEntity
100
AcDbBlockEnd
  0
BLOCK
  5
263
100
AcDbEntity
  8
0
100
AcDbBlockBegin
  2
CDWK_PTTYP11
 70
     0
 10
0.0
 20
0.0
 30
0.0
  3
CDWK_PTTYP11
  1

  4
Cadwork node
  0
CIRCLE
  5
264
100
AcDbEntity
  8
0
 62
     0
370
    -2
100
AcDbCircle
 10
0.0
 20
0.0
 30
0.0
 40
0.5
  0
CIRCLE
  5
265
100
AcDbEntity
  8
0
 62
     0
370
    -2
100
AcDbCircle
 10
0.0
 20
0.0
 30
0.0
 40
0.25
  0
ENDBLK
  5
266
100
AcDbEntity
100
AcDbBlockEnd
  0
BLOCK
  5
267
100
AcDbEntity
  8
0
100
AcDbBlockBegin
  2
CDWK_PTTYP12
 70
     0
 10
0.0
 20
0.0
 30
0.0
  3
CDWK_PTTYP12
  1

  4
Cadwork node
  0
CIRCLE
  5
268
100
AcDbEntity
  8
0
 62
     0
370
    -2
100
AcDbCircle
 10
0.0
 20
0.0
 30
0.0
 40
0.5
  0
CIRCLE
  5
269
100
AcDbEntity
  8
0
 62
     0
370
    -2
100
AcDbCircle
 10
0.25
 20
0.0
 30
0.0
 40
0.25
  0
ENDBLK
  5
26A
100
AcDbEntity
100
AcDbBlockEnd
  0
BLOCK
  5
26B
100
AcDbEntity
  8
0
100
AcDbBlockBegin
  2
CDWK_PTTYP13
 70
     0
 10
0.0
 20
0.0
 30
0.0
  3
CDWK_PTTYP13
  1

  4
Cadwork node
  0
CIRCLE
  5
26C
100
AcDbEntity
  8
0
 62
     0
370
    -2
100
AcDbCircle
 10
0.0
 20
0.0
 30
0.0
 40
0.5
  0
CIRCLE
  5
26D
100
AcDbEntity
  8
0
 62
     0
370
    -2
100
AcDbCircle
 10
0.25
 20
0.0
 30
0.0
 40
0.25
  0
CIRCLE
  5
26E
100
AcDbEntity
  8
0
 62
     0
370
    -2
100
AcDbCircle
 10
-0.25
 20
0.0
 30
0.0
 40
0.25
  0
ENDBLK
  5
26F
100
AcDbEntity
100
AcDbBlockEnd
  0
BLOCK
  5
270
100
AcDbEntity
  8
0
100
AcDbBlockBegin
  2
CDWK_PTTYP14
 70
     0
 10
0.0
 20
0.0
 30
0.0
  3
CDWK_PTTYP14
  1

  4
Cadwork node
  0
POINT
  5
271
100
AcDbEntity
  8
0
 62
     0
100
AcDbPoint
 10
0.0
 20
0.0
 30
0.0
  0
ENDBLK
  5
272
100
AcDbEntity
100
AcDbBlockEnd
  0
BLOCK
  5
273
100
AcDbEntity
  8
0
100
AcDbBlockBegin
  2
CDWK_PTTYP15
 70
     0
 10
0.0
 20
0.0
 30
0.0
  3
CDWK_PTTYP15
  1

  4
Cadwork node
  0
POINT
  5
274
100
AcDbEntity
  8
0
 62
     0
100
AcDbPoint
 10
0.0
 20
0.0
 30
0.0
  0
ENDBLK
  5
275
100
AcDbEntity
100
AcDbBlockEnd
  0
BLOCK
  5
276
100
AcDbEntity
  8
0
100
AcDbBlockBegin
  2
CDWK_PTTYP16
 70
     0
 10
0.0
 20
0.0
 30
0.0
  3
CDWK_PTTYP16
  1

  4
Cadwork node
  0
LINE
  5
277
100
AcDbEntity
  8
0
 62
     0
370
    -2
100
AcDbLine
 10
-0.5
 20
-0.28867513
 30
0.0
 11
0.5
 21
-0.28867513
 31
0.0
  0
LINE
  5
278
100
AcDbEntity
  8
0
 62
     0
370
    -2
100
AcDbLine
 10
0.5
 20
-0.28867513
 30
0.0
 11
0.0
 21
0.57735027
 31
0.0
  0
LINE
  5
279
100
AcDbEntity
  8
0
 62
     0
370
    -2
100
AcDbLine
 10
0.0
 20
0.57735027
 30
0.0
 11
-0.5
 21
-0.28867513
 31
0.0
  0
CIRCLE
  5
27A
100
AcDbEntity
  8
0
 62
     0
370
    -2
100
AcDbCircle
 10
0.0
 20
0.0
 30
0.0
 40
0.28867513
  0
ENDBLK
  5
27B
100
AcDbEntity
100
AcDbBlockEnd
  0
BLOCK
  5
27C
100
AcDbEntity
  8
0
100
AcDbBlockBegin
  2
CDWK_PTTYP17
 70
     0
 10
0.0
 20
0.0
 30
0.0
  3
CDWK_PTTYP17
  1

  4
Cadwork node
  0
CIRCLE
  5
27D
100
AcDbEntity
  8
0
 62
     0
370
    -2
100
AcDbCircle
 10
0.0
 20
0.0
 30
0.0
 40
0.5
  0
HATCH
  5
27E
100
AcDbEntity
  8
0
 62
     0
370
    -2
100
AcDbHatch
 10
0.0
 20
0.0
 30
0.0
210
0.0
220
0.0
230
1.0
  2
SOLID
 70
     1
 71
     0
 91
        1
 92
        1
 93
        1
 72
     2
 10
0.0
 20
0.0
 40
0.25
 50
0.0
 51
360.0
 73
     1
 97
        0
 75
     0
 76
     1
 98
        1
 10
0.0
 20
0.0
  0
ENDBLK
  5
27F
100
AcDbEntity
100
AcDbBlockEnd
  0
BLOCK
  5
280
100
AcDbEntity
  8
0
100
AcDbBlockBegin
  2
CDWK_PTTYP18
 70
     0
 10
0.0
 20
0.0
 30
0.0
  3
CDWK_PTTYP18
  1

  4
Cadwork node
  0
CIRCLE
  5
281
100
AcDbEntity
  8
0
 62
     0
370
    -2
100
AcDbCircle
 10
0.0
 20
0.0
 30
0.0
 40
0.5
  0
CIRCLE
  5
282
100
AcDbEntity
  8
0
 62
     0
370
    -2
100
AcDbCircle
 10
0.0
 20
0.0
 30
0.0
 40
0.2
  0
ENDBLK
  5
283
100
AcDbEntity
100
AcDbBlockEnd
  0
BLOCK
  5
284
100
AcDbEntity
  8
0
100
AcDbBlockBegin
  2
CDWK_PTTYP19
 70
     0
 10
0.0
 20
0.0
 30
0.0
  3
CDWK_PTTYP19
  1

  4
Cadwork node
  0
CIRCLE
  5
285
100
AcDbEntity
  8
0
 62
     0
370
    -2
100
AcDbCircle
 10
0.0
 20
0.0
 30
0.0
 40
0.4
  0
CIRCLE
  5
286
100
AcDbEntity
  8
0
 62
     0
370
    -2
100
AcDbCircle
 10
0.0
 20
0.0
 30
0.0
 40
0.25
  0
LINE
  5
287
100
AcDbEntity
  8
0
 62
     0
370
    -2
100
AcDbLine
 10
-0.25
 20
0.0
 30
0.0
 11
0.25
 21
0.0
 31
0.0
  0
ENDBLK
  5
288
100
AcDbEntity
100
AcDbBlockEnd
  0
BLOCK
  5
289
100
AcDbEntity
  8
0
100
AcDbBlockBegin
  2
CDWK_PTTYP20
 70
     0
 10
0.0
 20
0.0
 30
0.0
  3
CDWK_PTTYP20
  1

  4
Cadwork node
  0
CIRCLE
  5
28A
100
AcDbEntity
  8
0
 62
     0
370
    -2
100
AcDbCircle
 10
0.0
 20
0.0
 30
0.0
 40
0.5
  0
CIRCLE
  5
28B
100
AcDbEntity
  8
0
 62
     0
370
    -2
100
AcDbCircle
 10
0.0
 20
0.0
 30
0.0
 40
0.3
  0
ENDBLK
  5
28C
100
AcDbEntity
100
AcDbBlockEnd
  0
BLOCK
  5
28D
100
AcDbEntity
  8
0
100
AcDbBlockBegin
  2
CDWK_PTTYP21
 70
     0
 10
0.0
 20
0.0
 30
0.0
  3
CDWK_PTTYP21
  1

  4
Cadwork node
  0
CIRCLE
  5
28E
100
AcDbEntity
  8
0
 62
     0
370
    -2
100
AcDbCircle
 10
0.0
 20
0.0
 30
0.0
 40
0.5
  0
LINE
  5
28F
100
AcDbEntity
  8
0
 62
     0
370
    -2
100
AcDbLine
 10
-0.5
 20
0.0
 30
0.0
 11
0.5
 21
0.0
 31
0.0
  0
ENDBLK
  5
290
100
AcDbEntity
100
AcDbBlockEnd
  0
BLOCK
  5
291
100
AcDbEntity
  8
0
100
AcDbBlockBegin
  2
CDWK_PTTYP22
 70
     0
 10
0.0
 20
0.0
 30
0.0
  3
CDWK_PTTYP22
  1

  4
Cadwork node
  0
POINT
  5
292
100
AcDbEntity
  8
0
 62
     0
100
AcDbPoint
 10
0.0
 20
0.0
 30
0.0
  0
ENDBLK
  5
293
100
AcDbEntity
100
AcDbBlockEnd
  0
BLOCK
  5
294
100
AcDbEntity
  8
0
100
AcDbBlockBegin
  2
CDWK_PTTYP23
 70
     0
 10
0.0
 20
0.0
 30
0.0
  3
CDWK_PTTYP23
  1

  4
Cadwork node
  0
POINT
  5
295
100
AcDbEntity
  8
0
 62
     0
100
AcDbPoint
 10
0.0
 20
0.0
 30
0.0
  0
ENDBLK
  5
296
100
AcDbEntity
100
AcDbBlockEnd
  0
BLOCK
  5
297
100
AcDbEntity
  8
0
100
AcDbBlockBegin
  2
CDWK_PTTYP24
 70
     0
 10
0.0
 20
0.0
 30
0.0
  3
CDWK_PTTYP24
  1

  4
Cadwork node
  0
POINT
  5
298
100
AcDbEntity
  8
0
 62
     0
100
AcDbPoint
 10
0.0
 20
0.0
 30
0.0
  0
ENDBLK
  5
299
100
AcDbEntity
100
AcDbBlockEnd
  0
BLOCK
  5
29A
100
AcDbEntity
  8
0
100
AcDbBlockBegin
  2
CDWK_PTTYP25
 70
     0
 10
0.0
 20
0.0
 30
0.0
  3
CDWK_PTTYP25
  1

  4
Cadwork node
  0
LINE
  5
29B
100
AcDbEntity
  8
0
 62
     0
370
    -2
100
AcDbLine
 10
-0.43290044
 20
-0.25
 30
0.0
 11
0.43290044
 21
-0.25
 31
0.0
  0
LINE
  5
29C
100
AcDbEntity
  8
0
 62
     0
370
    -2
100
AcDbLine
 10
-0.43290044
 20
-0.25
 30
0.0
 11
0.0
 21
0.5
 31
0.0
  0
LINE
  5
29D
100
AcDbEntity
  8
0
 62
     0
370
    -2
100
AcDbLine
 10
0.43290044
 20
-0.25
 30
0.0
 11
0.0
 21
0.5
 31
0.0
  0
CIRCLE
  5
29E
100
AcDbEntity
  8
0
 62
     0
370
    -2
100
AcDbCircle
 10
0.0
 20
0.0
 30
0.0
 40
0.5
  0
ENDBLK
  5
29F
100
AcDbEntity
100
AcDbBlockEnd
  0
BLOCK
  5
2A0
100
AcDbEntity
  8
0
100
AcDbBlockBegin
  2
CDWK_PTTYP26
 70
     0
 10
0.0
 20
0.0
 30
0.0
  3
CDWK_PTTYP26
  1

  4
Cadwork node
  0
LINE
  5
2A1
100
AcDbEntity
  8
0
 62
     0
370
    -2
100
AcDbLine
 10
-0.5
 20
-0.28850001
 30
0.0
 11
0.5
 21
-0.28850001
 31
0.0
  0
LINE
  5
2A2
100
AcDbEntity
  8
0
 62
     0
370
    -2
100
AcDbLine
 10
-0.5
 20
-0.28850001
 30
0.0
 11
0.0
 21
0.57736721
 31
0.0
  0
LINE
  5
2A3
100
AcDbEntity
  8
0
 62
     0
370
    -2
100
AcDbLine
 10
0.5
 20
-0.28850001
 30
0.0
 11
0.0
 21
0.57736721
 31
0.0
  0
CIRCLE
  5
2A4
100
AcDbEntity
  8
0
 62
     0
370
    -2
100
AcDbCircle
 10
0.0
 20
0.0
 30
0.0
 40
0.1312336
  0
ENDBLK
  5
2A5
100
AcDbEntity
100
AcDbBlockEnd
  0
BLOCK
  5
2A6
100
AcDbEntity
  8
0
100
AcDbBlockBegin
  2
CDWK_PTTYP27
 70
     0
 10
0.0
 20
0.0
 30
0.0
  3
CDWK_PTTYP27
  1

  4
Cadwork node
  0
LINE
  5
2A7
100
AcDbEntity
  8
0
 62
     0
370
    -2
100
AcDbLine
 10
-0.43290044
 20
-0.25
 30
0.0
 11
0.43290044
 21
-0.25
 31
0.0
  0
LINE
  5
2A8
100
AcDbEntity
  8
0
 62
     0
370
    -2
100
AcDbLine
 10
-0.43290044
 20
-0.25
 30
0.0
 11
0.0
 21
0.5
 31
0.0
  0
LINE
  5
2A9
100
AcDbEntity
  8
0
 62
     0
370
    -2
100
AcDbLine
 10
0.43290044
 20
-0.25
 30
0.0
 11
0.0
 21
0.5
 31
0.0
  0
CIRCLE
  5
2AA
100
AcDbEntity
  8
0
 62
     0
370
    -2
100
AcDbCircle
 10
0.0
 20
0.0
 30
0.0
 40
0.5
  0
CIRCLE
  5
2AB
100
AcDbEntity
  8
0
 62
     0
370
    -2
100
AcDbCircle
 10
0.0
 20
0.0
 30
0.0
 40
0.1312336
  0
ENDBLK
  5
2AC
100
AcDbEntity
100
AcDbBlockEnd
  0
BLOCK
  5
2AD
100
AcDbEntity
  8
0
100
AcDbBlockBegin
  2
CDWK_PTTYP28
 70
     0
 10
0.0
 20
0.0
 30
0.0
  3
CDWK_PTTYP28
  1

  4
Cadwork node
  0
POINT
  5
2AE
100
AcDbEntity
  8
0
 62
     0
100
AcDbPoint
 10
0.0
 20
0.0
 30
0.0
  0
ENDBLK
  5
2AF
100
AcDbEntity
100
AcDbBlockEnd
  0
BLOCK
  5
2B0
100
AcDbEntity
  8
0
100
AcDbBlockBegin
  2
CDWK_PTTYP29
 70
     0
 10
0.0
 20
0.0
 30
0.0
  3
CDWK_PTTYP29
  1

  4
Cadwork node
  0
CIRCLE
  5
2B1
100
AcDbEntity
  8
0
 62
     0
370
    -2
100
AcDbCircle
 10
0.0
 20
0.0
 30
0.0
 40
0.5
  0
CIRCLE
  5
2B2
100
AcDbEntity
  8
0
 62
     0
370
    -2
100
AcDbCircle
 10
0.0
 20
0.0
 30
0.0
 40
0.375
  0
CIRCLE
  5
2B3
100
AcDbEntity
  8
0
 62
     0
370
    -2
100
AcDbCircle
 10
0.0
 20
0.0
 30
0.0
 40
0.21875
  0
ENDBLK
  5
2B4
100
AcDbEntity
100
AcDbBlockEnd
  0
BLOCK
  5
2B5
100
AcDbEntity
  8
0
100
AcDbBlockBegin
  2
CDWK_PTTYP30
 70
     0
 10
0.0
 20
0.0
 30
0.0
  3
CDWK_PTTYP30
  1

  4
Cadwork node
  0
LINE
  5
2B6
100
AcDbEntity
  8
0
 62
     0
370
    -2
100
AcDbLine
 10
0.17680339
 20
0.17680339
 30
0.0
 11
0.5
 21
0.5
 31
0.0
  0
LINE
  5
2B7
100
AcDbEntity
  8
0
 62
     0
370
    -2
100
AcDbLine
 10
-0.17680339
 20
0.17680339
 30
0.0
 11
-0.5
 21
0.5
 31
0.0
  0
LINE
  5
2B8
100
AcDbEntity
  8
0
 62
     0
370
    -2
100
AcDbLine
 10
0.17680339
 20
-0.17680339
 30
0.0
 11
0.5
 21
-0.5
 31
0.0
  0
LINE
  5
2B9
100
AcDbEntity
  8
0
 62
     0
370
    -2
100
AcDbLine
 10
-0.17680339
 20
-0.17680339
 30
0.0
 11
-0.5
 21
-0.5
 31
0.0
  0
ENDBLK
  5
2BA
100
AcDbEntity
100
AcDbBlockEnd
  0
BLOCK
  5
2BB
100
AcDbEntity
  8
0
100
AcDbBlockBegin
  2
CDWK_PTTYP31
 70
     0
 10
0.0
 20
0.0
 30
0.0
  3
CDWK_PTTYP31
  1

  4
Cadwork node
  0
CIRCLE
  5
2BC
100
AcDbEntity
  8
0
 62
     0
370
    -2
100
AcDbCircle
 10
0.0
 20
0.0
 30
0.0
 40
0.075
  0
LINE
  5
2BD
100
AcDbEntity
  8
0
 62
     0
370
    -2
100
AcDbLine
 10
0.075
 20
0.0
 30
0.0
 11
0.5
 21
0.0
 31
0.0
  0
LINE
  5
2BE
100
AcDbEntity
  8
0
 62
     0
370
    -2
100
AcDbLine
 10
-0.075
 20
0.0
 30
0.0
 11
-0.5
 21
0.0
 31
0.0
  0
LINE
  5
2BF
100
AcDbEntity
  8
0
 62
     0
370
    -2
100
AcDbLine
 10
0.0
 20
0.075
 30
0.0
 11
0.0
 21
0.5
 31
0.0
  0
LINE
  5
2C0
100
AcDbEntity
  8
0
 62
     0
370
    -2
100
AcDbLine
 10
0.0
 20
-0.075
 30
0.0
 11
0.0
 21
-0.5
 31
0.0
  0
ENDBLK
  5
2C1
100
AcDbEntity
100
AcDbBlockEnd
  0
BLOCK
  5
2C2
100
AcDbEntity
  8
0
100
AcDbBlockBegin
  2
CDWK_PTTYP32
 70
     0
 10
0.0
 20
0.0
 30
0.0
  3
CDWK_PTTYP32
  1

  4
Cadwork node
  0
CIRCLE
  5
2C3
100
AcDbEntity
  8
0
 62
     0
370
    -2
100
AcDbCircle
 10
0.0
 20
0.0
 30
0.0
 40
0.5
  0
CIRCLE
  5
2C4
100
AcDbEntity
  8
0
 62
     0
370
    -2
100
AcDbCircle
 10
0.0
 20
0.0
 30
0.0
 40
0.16666667
  0
LINE
  5
2C5
100
AcDbEntity
  8
0
 62
     0
370
    -2
100
AcDbLine
 10
0.11786893
 20
0.11786893
 30
0.0
 11
0.35360678
 21
0.35360678
 31
0.0
  0
LINE
  5
2C6
100
AcDbEntity
  8
0
 62
     0
370
    -2
100
AcDbLine
 10
-0.11786893
 20
0.11786893
 30
0.0
 11
-0.35360678
 21
0.35360678
 31
0.0
  0
LINE
  5
2C7
100
AcDbEntity
  8
0
 62
     0
370
    -2
100
AcDbLine
 10
0.11786893
 20
-0.11786893
 30
0.0
 11
0.35360678
 21
-0.35360678
 31
0.0
  0
LINE
  5
2C8
100
AcDbEntity
  8
0
 62
     0
370
    -2
100
AcDbLine
 10
-0.11786893
 20
-0.11786893
 30
0.0
 11
-0.35360678
 21
-0.35360678
 31
0.0
  0
ENDBLK
  5
2C9
100
AcDbEntity
100
AcDbBlockEnd
  0
BLOCK
  5
2CA
100
AcDbEntity
  8
0
100
AcDbBlockBegin
  2
CDWK_PTTYP33
 70
     0
 10
0.0
 20
0.0
 30
0.0
  3
CDWK_PTTYP33
  1

  4
Cadwork node
  0
CIRCLE
  5
2CB
100
AcDbEntity
  8
0
 62
     0
370
    -2
100
AcDbCircle
 10
0.0
 20
0.0
 30
0.0
 40
0.5
  0
LINE
  5
2CC
100
AcDbEntity
  8
0
 62
     0
370
    -2
100
AcDbLine
 10
0.0
 20
0.5
 30
0.0
 11
0.0
 21
-0.5
 31
0.0
  0
LINE
  5
2CD
100
AcDbEntity
  8
0
 62
     0
370
    -2
100
AcDbLine
 10
-0.5
 20
0.0
 30
0.0
 11
0.5
 21
0.0
 31
0.0
  0
ENDBLK
  5
2CE
100
AcDbEntity
100
AcDbBlockEnd
  0
BLOCK
  5
2CF
100
AcDbEntity
  8
0
100
AcDbBlockBegin
  2
CDWK_PTTYP34
 70
     0
 10
0.0
 20
0.0
 30
0.0
  3
CDWK_PTTYP34
  1

  4
Cadwork node
  0
CIRCLE
  5
2D0
100
AcDbEntity
  8
0
 62
     0
370
    -2
100
AcDbCircle
 10
0.0
 20
0.0
 30
0.0
 40
0.5
  0
LINE
  5
2D1
100
AcDbEntity
  8
0
 62
     0
370
    -2
100
AcDbLine
 10
-0.30360678
 20
-0.40360678
 30
0.0
 11
0.40360678
 21
0.30360678
 31
0.0
  0
LINE
  5
2D2
100
AcDbEntity
  8
0
 62
     0
370
    -2
100
AcDbLine
 10
-0.40360678
 20
-0.30360678
 30
0.0
 11
0.30360678
 21
0.40360678
 31
0.0
  0
ENDBLK
  5
2D3
100
AcDbEntity
100
AcDbBlockEnd
  0
BLOCK
  5
2D4
100
AcDbEntity
  8
0
100
AcDbBlockBegin
  2
CDWK_PTTYP35
 70
     0
 10
0.0
 20
0.0
 30
0.0
  3
CDWK_PTTYP35
  1

  4
Cadwork node
  0
CIRCLE
  5
2D5
100
AcDbEntity
  8
0
 62
     0
370
    -2
100
AcDbCircle
 10
0.0
 20
0.0
 30
0.0
 40
0.21431634
  0
LINE
  5
2D6
100
AcDbEntity
  8
0
 62
     0
370
    -2
100
AcDbLine
 10
0.0
 20
0.21431634
 30
0.0
 11
0.0
 21
0.5
 31
0.0
  0
LINE
  5
2D7
100
AcDbEntity
  8
0
 62
     0
370
    -2
100
AcDbLine
 10
0.0
 20
-0.21431634
 30
0.0
 11
0.0
 21
-0.5
 31
0.0
  0
ENDBLK
  5
2D8
100
AcDbEntity
100
AcDbBlockEnd
  0
BLOCK
  5
2D9
100
AcDbEntity
  8
0
100
AcDbBlockBegin
  2
CDWK_PTTYP36
 70
     0
 10
0.0
 20
0.0
 30
0.0
  3
CDWK_PTTYP36
  1

  4
Cadwork node
  0
LINE
  5
2DA
100
AcDbEntity
  8
0
 62
     0
370
    -2
100
AcDbLine
 10
-0.5
 20
-0.16666667
 30
0.0
 11
0.5
 21
-0.16666667
 31
0.0
  0
LINE
  5
2DB
100
AcDbEntity
  8
0
 62
     0
370
    -2
100
AcDbLine
 10
0.5
 20
-0.16666667
 30
0.0
 11
0.5
 21
0.16666667
 31
0.0
  0
LINE
  5
2DC
100
AcDbEntity
  8
0
 62
     0
370
    -2
100
AcDbLine
 10
0.5
 20
0.16666667
 30
0.0
 11
-0.5
 21
0.16666667
 31
0.0
  0
LINE
  5
2DD
100
AcDbEntity
  8
0
 62
     0
370
    -2
100
AcDbLine
 10
-0.5
 20
0.16666667
 30
0.0
 11
-0.5
 21
-0.16666667
 31
0.0
  0
SOLID
  5
2DE
100
AcDbEntity
  8
0
 62
     0
100
AcDbTrace
 10
-0.5
 20
-0.16666667
 11
0.5
 21
0.16666667
 12
0.5
 22
-0.16666667
 13
0.5
 23
-0.16666667
  0
ENDBLK
  5
2DF
100
AcDbEntity
100
AcDbBlockEnd
  0
BLOCK
  5
2E0
100
AcDbEntity
  8
0
100
AcDbBlockBegin
  2
CDWK_PTTYP37
 70
     0
 10
0.0
 20
0.0
 30
0.0
  3
CDWK_PTTYP37
  1

  4
Cadwork node
  0
CIRCLE
  5
2E1
100
AcDbEntity
  8
0
 62
     0
370
    -2
100
AcDbCircle
 10
0.0
 20
0.0
 30
0.0
 40
0.5
  0
SOLID
  5
2E2
100
AcDbEntity
  8
0
 62
     0
100
AcDbTrace
 10
0.0
 20
0.0
 11
0.35350001
 21
0.35350001
 12
0.5
 22
0.0
 13
0.46200001
 23
0.19149999
  0
SOLID
  5
2E3
100
AcDbEntity
  8
0
 62
     0
100
AcDbTrace
 10
0.0
 20
0.0
 11
0.35350001
 21
-0.35350001
 12
0.5
 22
0.0
 13
0.46200001
 23
-0.19149999
  0
SOLID
  5
2E4
100
AcDbEntity
  8
0
 62
     0
100
AcDbTrace
 10
0.0
 20
0.0
 11
0.0
 21
-0.5
 12
0.35350001
 22
-0.35350001
 13
0.19149999
 23
-0.46200001
  0
SOLID
  5
2E5
100
AcDbEntity
  8
0
 62
     0
100
AcDbTrace
 10
0.0
 20
0.0
 11
0.0
 21
-0.5
 12
-0.35350001
 22
-0.35350001
 13
-0.19149999
 23
-0.46200001
  0
ENDBLK
  5
2E6
100
AcDbEntity
100
AcDbBlockEnd
  0
BLOCK
  5
2E7
100
AcDbEntity
  8
0
100
AcDbBlockBegin
  2
CDWK_PTTYP38
 70
     0
 10
0.0
 20
0.0
 30
0.0
  3
CDWK_PTTYP38
  1

  4
Cadwork node
  0
CIRCLE
  5
2E8
100
AcDbEntity
  8
0
 62
     0
370
    -2
100
AcDbCircle
 10
0.0
 20
0.0
 30
0.0
 40
0.5
  0
SOLID
  5
2E9
100
AcDbEntity
  8
0
 62
     0
100
AcDbTrace
 10
0.0
 20
0.0
 11
0.35350001
 21
0.35350001
 12
0.0
 22
0.5
 13
0.19149999
 23
0.46200001
  0
SOLID
  5
2EA
100
AcDbEntity
  8
0
 62
     0
100
AcDbTrace
 10
0.0
 20
0.0
 11
0.5
 21
0.0
 12
0.35350001
 22
0.35350001
 13
0.46200001
 23
0.19149999
  0
SOLID
  5
2EB
100
AcDbEntity
  8
0
 62
     0
100
AcDbTrace
 10
0.0
 20
0.0
 11
0.0
 21
-0.5
 12
-0.35350001
 22
-0.35350001
 13
-0.19149999
 23
-0.46200001
  0
SOLID
  5
2EC
100
AcDbEntity
  8
0
 62
     0
100
AcDbTrace
 10
0.0
 20
0.0
 11
-0.5
 21
0.0
 12
-0.35350001
 22
-0.35350001
 13
-0.46200001
 23
-0.19149999
  0
ENDBLK
  5
2ED
100
AcDbEntity
100
AcDbBlockEnd
  0
ENDSEC
  0
SECTION
  2
ENTITIES
  0
LINE
  5
2EE
100
AcDbEntity
  8
Esc 1_10
 62
    36
  6
CONTINUOUS
370
    -3
100
AcDbLine
 10
10756.55616848
 20
2639.17345919
 30
0.0
 11
11034.0754841
 21
2695.70287228
 31
0.0
  0
LINE
  5
2EF
100
AcDbEntity
  8
Esc 1_10
 62
    36
  6
CONTINUOUS
370
    -3
100
AcDbLine
 10
11034.01977163
 20
2696.92199156
 30
0.0
 11
11034.0754841
 21
2695.70287228
 31
0.0
  0
LINE
  5
2F0
100
AcDbEntity
  8
Esc 1_10
 62
    36
  6
CONTINUOUS
370
    -3
100
AcDbLine
 10
11033.85402785
 20
2698.15934762
 30
0.0
 11
11034.01977163
 21
2696.92199156
 31
0.0
  0
LINE
  5
2F1
100
AcDbEntity
  8
Esc 1_10
 62
    36
  6
CONTINUOUS
370
    -3
100
AcDbLine
 10
11033.58233392
 20
2699.38447264
 30
0.0
 11
11033.85402785
 21
2698.15934762
 31
0.0
  0
LINE
  5
2F2
100
AcDbEntity
  8
Esc 1_10
 62
    36
  6
CONTINUOUS
370
    -3
100
AcDbLine
 10
11033.21137985
 20
2700.56719999
 30
0.0
 11
11033.58233392
 21
2699.38447264
 31
0.0
  0
LINE
  5
2F3
100
AcDbEntity
  8
Esc 1_10
 62
    36
  6
CONTINUOUS
370
    -3
100
AcDbLine
 10
11032.75029975
 20
2701.67840699
 30
0.0
 11
11033.21137985
 21
2700.56719999
 31
0.0
  0
LINE
  5
2F4
100
AcDbEntity
  8
Esc 1_10
 62
    36
  6
CONTINUOUS
370
    -3
100
AcDbLine
 10
11032.21044695
 20
2702.69073204
 30
0.0
 11
11032.75029975
 21
2701.67840699
 31
0.0
  0
LINE
  5
2F5
100
AcDbEntity
  8
Esc 1_10
 62
    36
  6
CONTINUOUS
370
    -3
100
AcDbLine
 10
11031.60511441
 20
2703.57924834
 30
0.0
 11
11032.21044695
 21
2702.69073204
 31
0.0
  0
LINE
  5
2F6
100
AcDbEntity
  8
Esc 1_10
 62
    36
  6
CONTINUOUS
370
    -3
100
AcDbLine
 10
11030.94920744
 20
2704.32207766
 30
0.0
 11
11031.60511441
 21
2703.57924834
 31
0.0
  0
LINE
  5
2F7
100
AcDbEntity
  8
Esc 1_10
 62
    36
  6
CONTINUOUS
370
    -3
100
AcDbLine
 10
11030.25887663
 20
2704.90092908
 30
0.0
 11
11030.94920744
 21
2704.32207766
 31
0.0
  0
LINE
  5
2F8
100
AcDbEntity
  8
Esc 1_10
 62
    36
  6
CONTINUOUS
370
    -3
100
AcDbLine
 10
11029.55112023
 20
2705.30154936
 30
0.0
 11
11030.25887663
 21
2704.90092908
 31
0.0
  0
LINE
  5
2F9
100
AcDbEntity
  8
Esc 1_10
 62
    36
  6
CONTINUOUS
370
    -3
100
AcDbLine
 10
10756.55607255
 20
2649.69370892
 30
0.0
 11
11029.55112023
 21
2705.30154936
 31
0.0
  0
LINE
  5
2FA
100
AcDbEntity
  8
Esc 1_10
 62
    36
  6
CONTINUOUS
370
    -3
100
AcDbLine
 10
11025.5923628
 20
2707.01633043
 30
0.0
 11
11029.55112023
 21
2705.30154936
 31
0.0
  0
LINE
  5
2FB
100
AcDbEntity
  8
Esc 1_10
 62
    36
  6
CONTINUOUS
370
    -3
100
AcDbLine
 10
11025.5923628
 20
2707.01633043
 30
0.0
 11
10756.55604956
 21
2652.21486606
 31
0.0
  0
LINE
  5
2FC
100
AcDbEntity
  8
Esc 1_10
 62
    36
  6
CONTINUOUS
370
    -3
100
AcDbLine
 10
11025.5923628
 20
2707.01633043
 30
0.0
 11
11024.17843378
 21
2717.17741135
 31
0.0
  0
LINE
  5
2FD
100
AcDbEntity
  8
Esc 1_10
 62
    36
  6
CONTINUOUS
370
    -3
100
AcDbLine
 10
11024.17843378
 20
2717.17741135
 30
0.0
 11
10756.55595428
 21
2662.66393843
 31
0.0
  0
LINE
  5
2FE
100
AcDbEntity
  8
Esc 1_10
 62
    36
  6
CONTINUOUS
370
    -3
100
AcDbLine
 10
10756.55592144
 20
2666.26559148
 30
0.0
 11
11018.52306602
 21
2719.62709859
 31
0.0
  0
LINE
  5
2FF
100
AcDbEntity
  8
Esc 1_10
 62
    36
  6
CONTINUOUS
370
    -3
100
AcDbLine
 10
11018.52306602
 20
2719.62709859
 30
0.0
 11
11024.17843378
 21
2717.17741135
 31
0.0
  0
LINE
  5
300
100
AcDbEntity
  8
Esc 1_10
 62
    36
  6
CONTINUOUS
370
    -3
100
AcDbLine
 10
10756.55723946
 20
2521.72495219
 30
0.0
 11
10756.55690569
 21
2558.32814543
 31
0.0
  0
LINE
  5
301
100
AcDbEntity
  8
Esc 1_10
 62
    36
  6
CONTINUOUS
370
    -3
100
AcDbLine
 10
10756.55728764
 20
2516.44200927
 30
0.0
 11
11031.14903436
 21
2572.37508999
 31
0.0
  0
LINE
  5
302
100
AcDbEntity
  8
Esc 1_10
 62
    36
  6
CONTINUOUS
370
    -3
100
AcDbLine
 10
11031.60630952
 20
2572.51807325
 30
0.0
 11
11031.14903436
 21
2572.37508999
 31
0.0
  0
LINE
  5
303
100
AcDbEntity
  8
Esc 1_10
 62
    36
  6
CONTINUOUS
370
    -3
100
AcDbLine
 10
11032.21163064
 20
2572.88218107
 30
0.0
 11
11031.60630952
 21
2572.51807325
 31
0.0
  0
LINE
  5
304
100
AcDbEntity
  8
Esc 1_10
 62
    36
  6
CONTINUOUS
370
    -3
100
AcDbLine
 10
11032.75146924
 20
2573.42682543
 30
0.0
 11
11032.21163064
 21
2572.88218107
 31
0.0
  0
LINE
  5
305
100
AcDbEntity
  8
Esc 1_10
 62
    36
  6
CONTINUOUS
370
    -3
100
AcDbLine
 10
11033.21253272
 20
2574.1385954
 30
0.0
 11
11032.75146924
 21
2573.42682543
 31
0.0
  0
LINE
  5
306
100
AcDbEntity
  8
Esc 1_10
 62
    36
  6
CONTINUOUS
370
    -3
100
AcDbLine
 10
11033.58346815
 20
2574.99996482
 30
0.0
 11
11033.21253272
 21
2574.1385954
 31
0.0
  0
LINE
  5
307
100
AcDbEntity
  8
Esc 1_10
 62
    36
  6
CONTINUOUS
370
    -3
100
AcDbLine
 10
11033.85514188
 20
2575.98972392
 30
0.0
 11
11033.58346815
 21
2574.99996482
 31
0.0
  0
LINE
  5
308
100
AcDbEntity
  8
Esc 1_10
 62
    36
  6
CONTINUOUS
370
    -3
100
AcDbLine
 10
11034.02086441
 20
2577.08350156
 30
0.0
 11
11033.85514188
 21
2575.98972392
 31
0.0
  0
LINE
  5
309
100
AcDbEntity
  8
Esc 1_10
 62
    36
  6
CONTINUOUS
370
    -3
100
AcDbLine
 10
11034.07655508
 20
2578.25436529
 30
0.0
 11
11034.02086441
 21
2577.08350156
 31
0.0
  0
LINE
  5
30A
100
AcDbEntity
  8
Esc 1_10
 62
    36
  6
CONTINUOUS
370
    -3
100
AcDbLine
 10
11034.07655508
 20
2578.25436529
 30
0.0
 11
10756.55723946
 21
2521.72495219
 31
0.0
  0
LINE
  5
30B
100
AcDbEntity
  8
Esc 1_10
 62
    36
  6
CONTINUOUS
370
    -3
100
AcDbLine
 10
10719.44386291
 20
2606.07114203
 30
0.0
 11
10719.44446806
 21
2539.70796125
 31
0.0
  0
LINE
  5
30C
100
AcDbEntity
  8
Esc 1_10
 62
    36
  6
CONTINUOUS
370
    -3
100
AcDbLine
 10
10719.44446806
 20
2539.70796125
 30
0.0
 11
10756.55690569
 21
2558.32814543
 31
0.0
  0
LINE
  5
30D
100
AcDbEntity
  8
Esc 1_10
 62
    36
  6
CONTINUOUS
370
    -3
100
AcDbLine
 10
11034.0754841
 20
2695.70287228
 30
0.0
 11
11034.07655508
 21
2578.25436529
 31
0.0
  0
LINE
  5
30E
100
AcDbEntity
  8
Esc 1_10
 62
    36
  6
CONTINUOUS
370
    -3
100
AcDbLine
 10
10693.9949409
 20
2591.55207152
 30
0.0
 11
10693.99541399
 21
2539.67102371
 31
0.0
  0
LINE
  5
30F
100
AcDbEntity
  8
Esc 1_10
 62
    36
  6
CONTINUOUS
370
    -3
100
AcDbLine
 10
10693.99541399
 20
2539.67102371
 30
0.0
 11
10719.44446806
 21
2539.70796125
 31
0.0
  0
LINE
  5
310
100
AcDbEntity
  8
Esc 1_10
 62
    36
  6
CONTINUOUS
370
    -3
100
AcDbLine
 10
10739.59241613
 20
2388.70872508
 30
0.0
 11
10741.006171
 21
2397.64496237
 31
0.0
  0
LINE
  5
311
100
AcDbEntity
  8
Esc 1_10
 62
    36
  6
CONTINUOUS
370
    -3
100
AcDbLine
 10
10747.34442464
 20
2390.2877737
 30
0.0
 11
10739.59241613
 21
2388.70872508
 31
0.0
  0
LINE
  5
312
100
AcDbEntity
  8
Esc 1_10
 62
    36
  6
CONTINUOUS
370
    -3
100
AcDbLine
 10
10756.55737878
 20
2506.44709763
 30
0.0
 11
11034.07669439
 21
2562.97651072
 31
0.0
  0
LINE
  5
313
100
AcDbEntity
  8
Esc 1_10
 62
    36
  6
CONTINUOUS
370
    -3
100
AcDbLine
 10
11034.02098193
 20
2564.19563
 30
0.0
 11
11034.07669439
 21
2562.97651072
 31
0.0
  0
LINE
  5
314
100
AcDbEntity
  8
Esc 1_10
 62
    36
  6
CONTINUOUS
370
    -3
100
AcDbLine
 10
11033.85523815
 20
2565.43298605
 30
0.0
 11
11034.02098193
 21
2564.19563
 31
0.0
  0
LINE
  5
315
100
AcDbEntity
  8
Esc 1_10
 62
    36
  6
CONTINUOUS
370
    -3
100
AcDbLine
 10
11033.58354422
 20
2566.65811108
 30
0.0
 11
11033.85523815
 21
2565.43298605
 31
0.0
  0
LINE
  5
316
100
AcDbEntity
  8
Esc 1_10
 62
    36
  6
CONTINUOUS
370
    -3
100
AcDbLine
 10
11033.21259014
 20
2567.84083843
 30
0.0
 11
11033.58354422
 21
2566.65811108
 31
0.0
  0
LINE
  5
317
100
AcDbEntity
  8
Esc 1_10
 62
    36
  6
CONTINUOUS
370
    -3
100
AcDbLine
 10
11032.75151004
 20
2568.95204543
 30
0.0
 11
11033.21259014
 21
2567.84083843
 31
0.0
  0
LINE
  5
318
100
AcDbEntity
  8
Esc 1_10
 62
    36
  6
CONTINUOUS
370
    -3
100
AcDbLine
 10
11032.21165724
 20
2569.96437048
 30
0.0
 11
11032.75151004
 21
2568.95204543
 31
0.0
  0
LINE
  5
319
100
AcDbEntity
  8
Esc 1_10
 62
    36
  6
CONTINUOUS
370
    -3
100
AcDbLine
 10
11031.60632471
 20
2570.85288678
 30
0.0
 11
11032.21165724
 21
2569.96437048
 31
0.0
  0
LINE
  5
31A
100
AcDbEntity
  8
Esc 1_10
 62
    36
  6
CONTINUOUS
370
    -3
100
AcDbLine
 10
11030.95041773
 20
2571.5957161
 30
0.0
 11
11031.60632471
 21
2570.85288678
 31
0.0
  0
LINE
  5
31B
100
AcDbEntity
  8
Esc 1_10
 62
    36
  6
CONTINUOUS
370
    -3
100
AcDbLine
 10
11030.26008693
 20
2572.17456752
 30
0.0
 11
11030.95041773
 21
2571.5957161
 31
0.0
  0
LINE
  5
31C
100
AcDbEntity
  8
Esc 1_10
 62
    36
  6
CONTINUOUS
370
    -3
100
AcDbLine
 10
11030.23482125
 20
2572.18886897
 30
0.0
 11
11030.26008693
 21
2572.17456752
 31
0.0
  0
LINE
  5
31D
100
AcDbEntity
  8
Esc 1_10
 62
    36
  6
CONTINUOUS
370
    -3
100
AcDbLine
 10
10746.66153876
 20
2395.19527513
 30
0.0
 11
10748.07546778
 21
2385.03419421
 31
0.0
  0
LINE
  5
31E
100
AcDbEntity
  8
Esc 1_10
 62
    36
  6
CONTINUOUS
370
    -3
100
AcDbLine
 10
10752.03422521
 20
2383.31941314
 30
0.0
 11
10748.07546778
 21
2385.03419421
 31
0.0
  0
LINE
  5
31F
100
AcDbEntity
  8
Esc 1_10
 62
    36
  6
CONTINUOUS
370
    -3
100
AcDbLine
 10
10752.03422521
 20
2383.31941314
 30
0.0
 11
10752.7419799
 21
2383.1068886
 31
0.0
  0
LINE
  5
320
100
AcDbEntity
  8
Esc 1_10
 62
    36
  6
CONTINUOUS
370
    -3
100
AcDbLine
 10
10752.7419799
 20
2383.1068886
 30
0.0
 11
10753.4323056
 21
2383.08769286
 31
0.0
  0
LINE
  5
321
100
AcDbEntity
  8
Esc 1_10
 62
    36
  6
CONTINUOUS
370
    -3
100
AcDbLine
 10
10753.4323056
 20
2383.08769286
 30
0.0
 11
10753.63089179
 21
2383.11930775
 31
0.0
  0
LINE
  5
322
100
AcDbEntity
  8
Esc 1_10
 62
    36
  6
CONTINUOUS
370
    -3
100
AcDbLine
 10
10753.63089179
 20
2383.11930775
 30
0.0
 11
10754.08820421
 21
2383.26229859
 31
0.0
  0
LINE
  5
323
100
AcDbEntity
  8
Esc 1_10
 62
    36
  6
CONTINUOUS
370
    -3
100
AcDbLine
 10
10754.08820421
 20
2383.26229859
 30
0.0
 11
10754.69352532
 21
2383.62640641
 31
0.0
  0
LINE
  5
324
100
AcDbEntity
  8
Esc 1_10
 62
    36
  6
CONTINUOUS
370
    -3
100
AcDbLine
 10
10754.69352532
 20
2383.62640641
 30
0.0
 11
10755.23336392
 21
2384.17105077
 31
0.0
  0
LINE
  5
325
100
AcDbEntity
  8
Esc 1_10
 62
    36
  6
CONTINUOUS
370
    -3
100
AcDbLine
 10
10755.23336392
 20
2384.17105077
 30
0.0
 11
10755.6944274
 21
2384.88282074
 31
0.0
  0
LINE
  5
326
100
AcDbEntity
  8
Esc 1_10
 62
    36
  6
CONTINUOUS
370
    -3
100
AcDbLine
 10
10755.6944274
 20
2384.88282074
 30
0.0
 11
10756.06536283
 21
2385.74419016
 31
0.0
  0
LINE
  5
327
100
AcDbEntity
  8
Esc 1_10
 62
    36
  6
CONTINUOUS
370
    -3
100
AcDbLine
 10
10756.06536283
 20
2385.74419016
 30
0.0
 11
10756.33703657
 21
2386.73394926
 31
0.0
  0
LINE
  5
328
100
AcDbEntity
  8
Esc 1_10
 62
    36
  6
CONTINUOUS
370
    -3
100
AcDbLine
 10
10756.33703657
 20
2386.73394926
 30
0.0
 11
10756.50275909
 21
2387.8277269
 31
0.0
  0
LINE
  5
329
100
AcDbEntity
  8
Esc 1_10
 62
    36
  6
CONTINUOUS
370
    -3
100
AcDbLine
 10
10756.50275909
 20
2387.8277269
 30
0.0
 11
10756.55844976
 21
2388.99859063
 31
0.0
  0
LINE
  5
32A
100
AcDbEntity
  8
Esc 1_10
 62
    36
  6
CONTINUOUS
370
    -3
100
AcDbLine
 10
10756.55844976
 20
2388.99859063
 30
0.0
 11
10756.55811599
 21
2425.60178387
 31
0.0
  0
LINE
  5
32B
100
AcDbEntity
  8
Esc 1_10
 62
    36
  6
CONTINUOUS
370
    -3
100
AcDbLine
 10
10731.10929483
 20
2400.02218323
 30
0.0
 11
10731.10917801
 21
2412.83345221
 31
0.0
  0
LINE
  5
32C
100
AcDbEntity
  8
Esc 1_10
 62
    36
  6
CONTINUOUS
370
    -3
100
AcDbLine
 10
10731.10929483
 20
2400.02218323
 30
0.0
 11
10731.1650073
 21
2398.80306395
 31
0.0
  0
LINE
  5
32D
100
AcDbEntity
  8
Esc 1_10
 62
    36
  6
CONTINUOUS
370
    -3
100
AcDbLine
 10
10731.1650073
 20
2398.80306395
 30
0.0
 11
10731.33075108
 21
2397.5657079
 31
0.0
  0
LINE
  5
32E
100
AcDbEntity
  8
Esc 1_10
 62
    36
  6
CONTINUOUS
370
    -3
100
AcDbLine
 10
10731.33075108
 20
2397.5657079
 30
0.0
 11
10731.60244501
 21
2396.34058287
 31
0.0
  0
LINE
  5
32F
100
AcDbEntity
  8
Esc 1_10
 62
    36
  6
CONTINUOUS
370
    -3
100
AcDbLine
 10
10731.60244501
 20
2396.34058287
 30
0.0
 11
10731.97339908
 21
2395.15785552
 31
0.0
  0
LINE
  5
330
100
AcDbEntity
  8
Esc 1_10
 62
    36
  6
CONTINUOUS
370
    -3
100
AcDbLine
 10
10731.97339908
 20
2395.15785552
 30
0.0
 11
10732.43447918
 21
2394.04664852
 31
0.0
  0
LINE
  5
331
100
AcDbEntity
  8
Esc 1_10
 62
    36
  6
CONTINUOUS
370
    -3
100
AcDbLine
 10
10732.43447918
 20
2394.04664852
 30
0.0
 11
10732.97433198
 21
2393.03432347
 31
0.0
  0
LINE
  5
332
100
AcDbEntity
  8
Esc 1_10
 62
    36
  6
CONTINUOUS
370
    -3
100
AcDbLine
 10
10732.97433198
 20
2393.03432347
 30
0.0
 11
10733.57966452
 21
2392.14580718
 31
0.0
  0
LINE
  5
333
100
AcDbEntity
  8
Esc 1_10
 62
    36
  6
CONTINUOUS
370
    -3
100
AcDbLine
 10
10733.57966452
 20
2392.14580718
 30
0.0
 11
10734.23557149
 21
2391.40297786
 31
0.0
  0
LINE
  5
334
100
AcDbEntity
  8
Esc 1_10
 62
    36
  6
CONTINUOUS
370
    -3
100
AcDbLine
 10
10734.23557149
 20
2391.40297786
 30
0.0
 11
10734.9259023
 21
2390.82412643
 31
0.0
  0
LINE
  5
335
100
AcDbEntity
  8
Esc 1_10
 62
    36
  6
CONTINUOUS
370
    -3
100
AcDbLine
 10
10734.9259023
 20
2390.82412643
 30
0.0
 11
10735.6336587
 21
2390.42350615
 31
0.0
  0
LINE
  5
336
100
AcDbEntity
  8
Esc 1_10
 62
    36
  6
CONTINUOUS
370
    -3
100
AcDbLine
 10
10739.59241613
 20
2388.70872508
 30
0.0
 11
10735.6336587
 21
2390.42350615
 31
0.0
  0
LINE
  5
337
100
AcDbEntity
  8
Esc 1_10
 62
    36
  6
CONTINUOUS
370
    -3
100
AcDbLine
 10
10741.006171
 20
2397.64496237
 30
0.0
 11
10746.66153876
 21
2395.19527513
 31
0.0
  0
LINE
  5
338
100
AcDbEntity
  8
Esc 1_10
 62
    36
  6
CONTINUOUS
370
    -3
100
AcDbLine
 10
10753.63092905
 20
2383.11931533
 30
0.0
 11
11031.15024466
 21
2439.64872843
 31
0.0
  0
LINE
  5
339
100
AcDbEntity
  8
Esc 1_10
 62
    36
  6
CONTINUOUS
370
    -3
100
AcDbLine
 10
11031.60751982
 20
2439.79171169
 30
0.0
 11
11031.15024466
 21
2439.64872843
 31
0.0
  0
LINE
  5
33A
100
AcDbEntity
  8
Esc 1_10
 62
    36
  6
CONTINUOUS
370
    -3
100
AcDbLine
 10
11032.21284093
 20
2440.1558195
 30
0.0
 11
11031.60751982
 21
2439.79171169
 31
0.0
  0
LINE
  5
33B
100
AcDbEntity
  8
Esc 1_10
 62
    36
  6
CONTINUOUS
370
    -3
100
AcDbLine
 10
11032.75267954
 20
2440.70046387
 30
0.0
 11
11032.21284093
 21
2440.1558195
 31
0.0
  0
LINE
  5
33C
100
AcDbEntity
  8
Esc 1_10
 62
    36
  6
CONTINUOUS
370
    -3
100
AcDbLine
 10
11033.21374301
 20
2441.41223383
 30
0.0
 11
11032.75267954
 21
2440.70046387
 31
0.0
  0
LINE
  5
33D
100
AcDbEntity
  8
Esc 1_10
 62
    36
  6
CONTINUOUS
370
    -3
100
AcDbLine
 10
11033.58467845
 20
2442.27360326
 30
0.0
 11
11033.21374301
 21
2441.41223383
 31
0.0
  0
LINE
  5
33E
100
AcDbEntity
  8
Esc 1_10
 62
    36
  6
CONTINUOUS
370
    -3
100
AcDbLine
 10
11033.85635218
 20
2443.26336236
 30
0.0
 11
11033.58467845
 21
2442.27360326
 31
0.0
  0
LINE
  5
33F
100
AcDbEntity
  8
Esc 1_10
 62
    36
  6
CONTINUOUS
370
    -3
100
AcDbLine
 10
11034.0220747
 20
2444.35714
 30
0.0
 11
11033.85635218
 21
2443.26336236
 31
0.0
  0
LINE
  5
340
100
AcDbEntity
  8
Esc 1_10
 62
    36
  6
CONTINUOUS
370
    -3
100
AcDbLine
 10
11034.07776538
 20
2445.52800373
 30
0.0
 11
11034.0220747
 21
2444.35714
 31
0.0
  0
LINE
  5
341
100
AcDbEntity
  8
Esc 1_10
 62
    36
  6
CONTINUOUS
370
    -3
100
AcDbLine
 10
10756.55844976
 20
2388.99859063
 30
0.0
 11
11034.07776538
 21
2445.52800373
 31
0.0
  0
LINE
  5
342
100
AcDbEntity
  8
Esc 1_10
 62
    36
  6
CONTINUOUS
370
    -3
100
AcDbLine
 10
10719.4450732
 20
2473.34478047
 30
0.0
 11
10719.44567835
 21
2406.98159968
 31
0.0
  0
LINE
  5
343
100
AcDbEntity
  8
Esc 1_10
 62
    36
  6
CONTINUOUS
370
    -3
100
AcDbLine
 10
10719.44567835
 20
2406.98159968
 30
0.0
 11
10756.55811599
 21
2425.60178387
 31
0.0
  0
LINE
  5
344
100
AcDbEntity
  8
Esc 1_10
 62
    36
  6
CONTINUOUS
370
    -3
100
AcDbLine
 10
11034.07669439
 20
2562.97651072
 30
0.0
 11
11034.07776538
 21
2445.52800373
 31
0.0
  0
LINE
  5
345
100
AcDbEntity
  8
Esc 1_10
 62
    36
  6
CONTINUOUS
370
    -3
100
AcDbLine
 10
10693.99615119
 20
2458.82570996
 30
0.0
 11
10693.99662428
 21
2406.94466215
 31
0.0
  0
LINE
  5
346
100
AcDbEntity
  8
Esc 1_10
 62
    36
  6
CONTINUOUS
370
    -3
100
AcDbLine
 10
10693.99662428
 20
2406.94466215
 30
0.0
 11
10719.44567835
 21
2406.98159968
 31
0.0
  0
LINE
  5
347
100
AcDbEntity
  8
Esc 1_10
 62
    36
  6
CONTINUOUS
370
    -3
100
AcDbLine
 10
10508.89899605
 20
2667.21207115
 30
0.0
 11
10508.25084583
 21
2666.89988294
 31
0.0
  0
LINE
  5
348
100
AcDbEntity
  8
Esc 1_10
 62
    36
  6
CONTINUOUS
370
    -3
100
AcDbLine
 10
10508.25084583
 20
2666.89988294
 30
0.0
 11
10507.29434605
 21
2666.24632994
 31
0.0
  0
LINE
  5
349
100
AcDbEntity
  8
Esc 1_10
 62
    36
  6
CONTINUOUS
370
    -3
100
AcDbLine
 10
10507.29434605
 20
2666.24632994
 30
0.0
 11
10506.4116028
 21
2665.44020597
 31
0.0
  0
LINE
  5
34A
100
AcDbEntity
  8
Esc 1_10
 62
    36
  6
CONTINUOUS
370
    -3
100
AcDbLine
 10
10506.4116028
 20
2665.44020597
 30
0.0
 11
10505.62435215
 21
2664.50136046
 31
0.0
  0
LINE
  5
34B
100
AcDbEntity
  8
Esc 1_10
 62
    36
  6
CONTINUOUS
370
    -3
100
AcDbLine
 10
10505.62435215
 20
2664.50136046
 30
0.0
 11
10504.95197883
 21
2663.45291092
 31
0.0
  0
LINE
  5
34C
100
AcDbEntity
  8
Esc 1_10
 62
    36
  6
CONTINUOUS
370
    -3
100
AcDbLine
 10
10504.95197883
 20
2663.45291092
 30
0.0
 11
10504.41103889
 21
2662.32067365
 31
0.0
  0
LINE
  5
34D
100
AcDbEntity
  8
Esc 1_10
 62
    36
  6
CONTINUOUS
370
    -3
100
AcDbLine
 10
10504.41103889
 20
2662.32067365
 30
0.0
 11
10504.01485207
 21
2661.13252809
 31
0.0
  0
LINE
  5
34E
100
AcDbEntity
  8
Esc 1_10
 62
    36
  6
CONTINUOUS
370
    -3
100
AcDbLine
 10
10504.01485207
 20
2661.13252809
 30
0.0
 11
10503.77317381
 21
2659.91773032
 31
0.0
  0
LINE
  5
34F
100
AcDbEntity
  8
Esc 1_10
 62
    36
  6
CONTINUOUS
370
    -3
100
AcDbLine
 10
10503.77317381
 20
2659.91773032
 30
0.0
 11
10503.69195503
 21
2658.70619271
 31
0.0
  0
LINE
  5
350
100
AcDbEntity
  8
Esc 1_10
 62
    36
  6
CONTINUOUS
370
    -3
100
AcDbLine
 10
10693.99508021
 20
2576.27421695
 30
0.0
 11
10503.69195503
 21
2658.70619271
 31
0.0
  0
LINE
  5
351
100
AcDbEntity
  8
Esc 1_10
 62
    36
  6
CONTINUOUS
370
    -3
100
AcDbLine
 10
10693.99581742
 20
2495.42890319
 30
0.0
 11
10693.99615119
 21
2458.82570996
 31
0.0
  0
LINE
  5
352
100
AcDbEntity
  8
Esc 1_10
 62
    36
  6
CONTINUOUS
370
    -3
100
AcDbLine
 10
10503.69302602
 20
2541.25768571
 30
0.0
 11
10503.77426659
 21
2540.07924032
 31
0.0
  0
LINE
  5
353
100
AcDbEntity
  8
Esc 1_10
 62
    36
  6
CONTINUOUS
370
    -3
100
AcDbLine
 10
10503.77426659
 20
2540.07924032
 30
0.0
 11
10504.0159661
 21
2538.9629044
 31
0.0
  0
LINE
  5
354
100
AcDbEntity
  8
Esc 1_10
 62
    36
  6
CONTINUOUS
370
    -3
100
AcDbLine
 10
10504.0159661
 20
2538.9629044
 30
0.0
 11
10504.41217312
 21
2537.93616583
 31
0.0
  0
LINE
  5
355
100
AcDbEntity
  8
Esc 1_10
 62
    36
  6
CONTINUOUS
370
    -3
100
AcDbLine
 10
10504.41217312
 20
2537.93616583
 30
0.0
 11
10504.9531317
 21
2537.02430633
 31
0.0
  0
LINE
  5
356
100
AcDbEntity
  8
Esc 1_10
 62
    36
  6
CONTINUOUS
370
    -3
100
AcDbLine
 10
10504.9531317
 20
2537.02430633
 30
0.0
 11
10505.62552164
 21
2536.2497789
 31
0.0
  0
LINE
  5
357
100
AcDbEntity
  8
Esc 1_10
 62
    36
  6
CONTINUOUS
370
    -3
100
AcDbLine
 10
10505.62552164
 20
2536.2497789
 30
0.0
 11
10506.41278649
 21
2535.63165499
 31
0.0
  0
LINE
  5
358
100
AcDbEntity
  8
Esc 1_10
 62
    36
  6
CONTINUOUS
370
    -3
100
AcDbLine
 10
10506.41278649
 20
2535.63165499
 30
0.0
 11
10507.111057
 21
2535.2607001
 31
0.0
  0
LINE
  5
359
100
AcDbEntity
  8
Esc 1_10
 62
    36
  6
CONTINUOUS
370
    -3
100
AcDbLine
 10
10507.111057
 20
2535.2607001
 30
0.0
 11
10693.99619238
 21
2454.30926573
 31
0.0
  0
LINE
  5
35A
100
AcDbEntity
  8
Esc 1_10
 62
    36
  6
CONTINUOUS
370
    -3
100
AcDbLine
 10
10693.99615119
 20
2458.82570996
 30
0.0
 11
10503.69302602
 21
2541.25768571
 31
0.0
  0
LINE
  5
35B
100
AcDbEntity
  8
Esc 1_10
 62
    36
  6
CONTINUOUS
370
    -3
100
AcDbLine
 10
10503.69195503
 20
2658.70619271
 30
0.0
 11
10503.69302602
 21
2541.25768571
 31
0.0
  0
LINE
  5
35C
100
AcDbEntity
  8
Esc 1_10
 62
    36
  6
CONTINUOUS
370
    -3
100
AcDbLine
 10
10719.4450732
 20
2473.34478047
 30
0.0
 11
10693.99581742
 21
2495.42890319
 31
0.0
  0
LINE
  5
35D
100
AcDbEntity
  8
Esc 1_10
 62
    36
  6
CONTINUOUS
370
    -3
100
AcDbLine
 10
10719.4450732
 20
2473.34478047
 30
0.0
 11
10719.44446806
 21
2539.70796125
 31
0.0
  0
LINE
  5
35E
100
AcDbEntity
  8
Esc 1_10
 62
    36
  6
CONTINUOUS
370
    -3
100
AcDbLine
 10
10719.4450732
 20
2473.34478047
 30
0.0
 11
10756.55771255
 21
2469.84390439
 31
0.0
  0
LINE
  5
35F
100
AcDbEntity
  8
Esc 1_10
 62
    36
  6
CONTINUOUS
370
    -3
100
AcDbLine
 10
10756.55771255
 20
2469.84390439
 30
0.0
 11
10756.55723946
 21
2521.72495219
 31
0.0
  0
LINE
  5
360
100
AcDbEntity
  8
Esc 1_10
 62
    36
  6
CONTINUOUS
370
    -3
100
AcDbLine
 10
10693.99386991
 20
2709.00057851
 30
0.0
 11
10694.0750887
 21
2710.21211613
 31
0.0
  0
LINE
  5
361
100
AcDbEntity
  8
Esc 1_10
 62
    36
  6
CONTINUOUS
370
    -3
100
AcDbLine
 10
10694.0750887
 20
2710.21211613
 30
0.0
 11
10694.31676695
 21
2711.42691389
 31
0.0
  0
LINE
  5
362
100
AcDbEntity
  8
Esc 1_10
 62
    36
  6
CONTINUOUS
370
    -3
100
AcDbLine
 10
10694.31676695
 20
2711.42691389
 30
0.0
 11
10694.71295377
 21
2712.61505946
 31
0.0
  0
LINE
  5
363
100
AcDbEntity
  8
Esc 1_10
 62
    36
  6
CONTINUOUS
370
    -3
100
AcDbLine
 10
10694.71295377
 20
2712.61505946
 30
0.0
 11
10695.25389371
 21
2713.74729673
 31
0.0
  0
LINE
  5
364
100
AcDbEntity
  8
Esc 1_10
 62
    36
  6
CONTINUOUS
370
    -3
100
AcDbLine
 10
10695.25389371
 20
2713.74729673
 30
0.0
 11
10695.92626703
 21
2714.79574627
 31
0.0
  0
LINE
  5
365
100
AcDbEntity
  8
Esc 1_10
 62
    36
  6
CONTINUOUS
370
    -3
100
AcDbLine
 10
10695.92626703
 20
2714.79574627
 30
0.0
 11
10696.71351768
 21
2715.73459177
 31
0.0
  0
LINE
  5
366
100
AcDbEntity
  8
Esc 1_10
 62
    36
  6
CONTINUOUS
370
    -3
100
AcDbLine
 10
10696.71351768
 20
2715.73459177
 30
0.0
 11
10697.59626093
 21
2716.54071575
 31
0.0
  0
LINE
  5
367
100
AcDbEntity
  8
Esc 1_10
 62
    36
  6
CONTINUOUS
370
    -3
100
AcDbLine
 10
10697.59626093
 20
2716.54071575
 30
0.0
 11
10698.55276071
 21
2717.19426875
 31
0.0
  0
LINE
  5
368
100
AcDbEntity
  8
Esc 1_10
 62
    36
  6
CONTINUOUS
370
    -3
100
AcDbLine
 10
10698.55276071
 20
2717.19426875
 30
0.0
 11
10699.55946483
 21
2717.67915812
 31
0.0
  0
LINE
  5
369
100
AcDbEntity
  8
Esc 1_10
 62
    36
  6
CONTINUOUS
370
    -3
100
AcDbLine
 10
10699.55946483
 20
2717.67915812
 30
0.0
 11
10700.59158488
 21
2717.98344429
 31
0.0
  0
LINE
  5
36A
100
AcDbEntity
  8
Esc 1_10
 62
    36
  6
CONTINUOUS
370
    -3
100
AcDbLine
 10
10700.59158488
 20
2717.98344429
 30
0.0
 11
10510.2884597
 21
2800.41542005
 31
0.0
  0
LINE
  5
36B
100
AcDbEntity
  8
Esc 1_10
 62
    36
  6
CONTINUOUS
370
    -3
100
AcDbLine
 10
10510.2884597
 20
2800.41542005
 30
0.0
 11
10509.25633965
 21
2800.11113388
 31
0.0
  0
LINE
  5
36C
100
AcDbEntity
  8
Esc 1_10
 62
    36
  6
CONTINUOUS
370
    -3
100
AcDbLine
 10
10509.25633965
 20
2800.11113388
 30
0.0
 11
10508.24963554
 21
2799.6262445
 31
0.0
  0
LINE
  5
36D
100
AcDbEntity
  8
Esc 1_10
 62
    36
  6
CONTINUOUS
370
    -3
100
AcDbLine
 10
10508.24963554
 20
2799.6262445
 30
0.0
 11
10507.29313575
 21
2798.97269151
 31
0.0
  0
LINE
  5
36E
100
AcDbEntity
  8
Esc 1_10
 62
    36
  6
CONTINUOUS
370
    -3
100
AcDbLine
 10
10507.29313575
 20
2798.97269151
 30
0.0
 11
10506.41039251
 21
2798.16656753
 31
0.0
  0
LINE
  5
36F
100
AcDbEntity
  8
Esc 1_10
 62
    36
  6
CONTINUOUS
370
    -3
100
AcDbLine
 10
10506.41039251
 20
2798.16656753
 30
0.0
 11
10505.62314186
 21
2797.22772203
 31
0.0
  0
LINE
  5
370
100
AcDbEntity
  8
Esc 1_10
 62
    36
  6
CONTINUOUS
370
    -3
100
AcDbLine
 10
10505.62314186
 20
2797.22772203
 30
0.0
 11
10504.95076853
 21
2796.17927248
 31
0.0
  0
LINE
  5
371
100
AcDbEntity
  8
Esc 1_10
 62
    36
  6
CONTINUOUS
370
    -3
100
AcDbLine
 10
10504.95076853
 20
2796.17927248
 30
0.0
 11
10504.40982859
 21
2795.04703521
 31
0.0
  0
LINE
  5
372
100
AcDbEntity
  8
Esc 1_10
 62
    36
  6
CONTINUOUS
370
    -3
100
AcDbLine
 10
10504.40982859
 20
2795.04703521
 30
0.0
 11
10504.01364178
 21
2793.85888965
 31
0.0
  0
LINE
  5
373
100
AcDbEntity
  8
Esc 1_10
 62
    36
  6
CONTINUOUS
370
    -3
100
AcDbLine
 10
10504.01364178
 20
2793.85888965
 30
0.0
 11
10503.77196352
 21
2792.64409189
 31
0.0
  0
LINE
  5
374
100
AcDbEntity
  8
Esc 1_10
 62
    36
  6
CONTINUOUS
370
    -3
100
AcDbLine
 10
10503.77196352
 20
2792.64409189
 30
0.0
 11
10503.69074474
 21
2791.43255427
 31
0.0
  0
LINE
  5
375
100
AcDbEntity
  8
Esc 1_10
 62
    36
  6
CONTINUOUS
370
    -3
100
AcDbLine
 10
10693.99386991
 20
2709.00057851
 30
0.0
 11
10503.69074474
 21
2791.43255427
 31
0.0
  0
LINE
  5
376
100
AcDbEntity
  8
Esc 1_10
 62
    36
  6
CONTINUOUS
370
    -3
100
AcDbLine
 10
10706.36464642
 20
2719.15939048
 30
0.0
 11
10700.59158488
 21
2717.98344429
 31
0.0
  0
LINE
  5
377
100
AcDbEntity
  8
Esc 1_10
 62
    36
  6
CONTINUOUS
370
    -3
100
AcDbLine
 10
10693.99386991
 20
2709.00057851
 30
0.0
 11
10693.99420369
 21
2672.39738528
 31
0.0
  0
LINE
  5
378
100
AcDbEntity
  8
Esc 1_10
 62
    36
  6
CONTINUOUS
370
    -3
100
AcDbLine
 10
10731.10664132
 20
2691.01756946
 30
0.0
 11
10693.99420369
 21
2672.39738528
 31
0.0
  0
LINE
  5
379
100
AcDbEntity
  8
Esc 1_10
 62
    36
  6
CONTINUOUS
370
    -3
100
AcDbLine
 10
10731.10664132
 20
2691.01756946
 30
0.0
 11
10731.10640841
 21
2716.56023257
 31
0.0
  0
LINE
  5
37A
100
AcDbEntity
  8
Esc 1_10
 62
    36
  6
CONTINUOUS
370
    -3
100
AcDbLine
 10
10731.02516783
 20
2717.73867796
 30
0.0
 11
10731.10640841
 21
2716.56023257
 31
0.0
  0
LINE
  5
37B
100
AcDbEntity
  8
Esc 1_10
 62
    36
  6
CONTINUOUS
370
    -3
100
AcDbLine
 10
10730.78346832
 20
2718.85501388
 30
0.0
 11
10731.02516783
 21
2717.73867796
 31
0.0
  0
LINE
  5
37C
100
AcDbEntity
  8
Esc 1_10
 62
    36
  6
CONTINUOUS
370
    -3
100
AcDbLine
 10
10730.3872613
 20
2719.88175245
 30
0.0
 11
10730.78346832
 21
2718.85501388
 31
0.0
  0
LINE
  5
37D
100
AcDbEntity
  8
Esc 1_10
 62
    36
  6
CONTINUOUS
370
    -3
100
AcDbLine
 10
10729.84630273
 20
2720.79361195
 30
0.0
 11
10730.3872613
 21
2719.88175245
 31
0.0
  0
LINE
  5
37E
100
AcDbEntity
  8
Esc 1_10
 62
    36
  6
CONTINUOUS
370
    -3
100
AcDbLine
 10
10729.17391278
 20
2721.56813938
 30
0.0
 11
10729.84630273
 21
2720.79361195
 31
0.0
  0
LINE
  5
37F
100
AcDbEntity
  8
Esc 1_10
 62
    36
  6
CONTINUOUS
370
    -3
100
AcDbLine
 10
10728.38664793
 20
2722.18626329
 30
0.0
 11
10729.17391278
 21
2721.56813938
 31
0.0
  0
LINE
  5
380
100
AcDbEntity
  8
Esc 1_10
 62
    36
  6
CONTINUOUS
370
    -3
100
AcDbLine
 10
10727.68837742
 20
2722.55721818
 30
0.0
 11
10728.38664793
 21
2722.18626329
 31
0.0
  0
LINE
  5
381
100
AcDbEntity
  8
Esc 1_10
 62
    36
  6
CONTINUOUS
370
    -3
100
AcDbLine
 10
10727.50389326
 20
2722.63276343
 30
0.0
 11
10727.68837742
 21
2722.55721818
 31
0.0
  0
LINE
  5
382
100
AcDbEntity
  8
Esc 1_10
 62
    36
  6
CONTINUOUS
370
    -3
100
AcDbLine
 10
10726.54738511
 20
2722.89664547
 30
0.0
 11
10727.50389326
 21
2722.63276343
 31
0.0
  0
LINE
  5
383
100
AcDbEntity
  8
Esc 1_10
 62
    36
  6
CONTINUOUS
370
    -3
100
AcDbLine
 10
10725.54067589
 20
2722.97141178
 30
0.0
 11
10726.54738511
 21
2722.89664547
 31
0.0
  0
LINE
  5
384
100
AcDbEntity
  8
Esc 1_10
 62
    36
  6
CONTINUOUS
370
    -3
100
AcDbLine
 10
10724.50855413
 20
2722.85522135
 30
0.0
 11
10725.54067589
 21
2722.97141178
 31
0.0
  0
LINE
  5
385
100
AcDbEntity
  8
Esc 1_10
 62
    36
  6
CONTINUOUS
370
    -3
100
AcDbLine
 10
10724.50855413
 20
2722.85522135
 30
0.0
 11
10718.73549259
 21
2721.67927517
 31
0.0
  0
LINE
  5
386
100
AcDbEntity
  8
Esc 1_10
 62
    36
  6
CONTINUOUS
370
    -3
100
AcDbLine
 10
10718.73549259
 20
2721.67927517
 30
0.0
 11
10716.67359782
 21
2730.80795349
 31
0.0
  0
LINE
  5
387
100
AcDbEntity
  8
Esc 1_10
 62
    36
  6
CONTINUOUS
370
    -3
100
AcDbLine
 10
10716.67359782
 20
2730.80795349
 30
0.0
 11
10708.42636704
 21
2729.12803037
 31
0.0
  0
LINE
  5
388
100
AcDbEntity
  8
Esc 1_10
 62
    36
  6
CONTINUOUS
370
    -3
100
AcDbLine
 10
10708.42636704
 20
2729.12803037
 30
0.0
 11
10706.36464642
 21
2719.15939048
 31
0.0
  0
LINE
  5
389
100
AcDbEntity
  8
Esc 1_10
 62
    36
  6
CONTINUOUS
370
    -3
100
AcDbLine
 10
10516.06152124
 20
2801.59136624
 30
0.0
 11
10510.2884597
 21
2800.41542005
 31
0.0
  0
LINE
  5
38A
100
AcDbEntity
  8
Esc 1_10
 62
    36
  6
CONTINUOUS
370
    -3
100
AcDbLine
 10
10516.06152124
 20
2801.59136624
 30
0.0
 11
10706.36464642
 21
2719.15939048
 31
0.0
  0
LINE
  5
38B
100
AcDbEntity
  8
Esc 1_10
 62
    36
  6
CONTINUOUS
370
    -3
100
AcDbLine
 10
10727.68842089
 20
2722.55719935
 30
0.0
 11
10717.54475831
 21
2726.95104284
 31
0.0
  0
LINE
  5
38C
100
AcDbEntity
  8
Esc 1_10
 62
    36
  6
CONTINUOUS
370
    -3
100
AcDbLine
 10
10724.50855413
 20
2722.85522135
 30
0.0
 11
10717.81499603
 21
2725.75461262
 31
0.0
  0
LINE
  5
38D
100
AcDbEntity
  8
Esc 1_10
 62
    36
  6
CONTINUOUS
370
    -3
100
AcDbLine
 10
10708.42636704
 20
2729.12803037
 30
0.0
 11
10518.12324187
 21
2811.56000612
 31
0.0
  0
LINE
  5
38E
100
AcDbEntity
  8
Esc 1_10
 62
    36
  6
CONTINUOUS
370
    -3
100
AcDbLine
 10
10516.06152124
 20
2801.59136624
 30
0.0
 11
10518.12324187
 21
2811.56000612
 31
0.0
  0
LINE
  5
38F
100
AcDbEntity
  8
Esc 1_10
 62
    36
  6
CONTINUOUS
370
    -3
100
AcDbLine
 10
10716.67359782
 20
2730.80795349
 30
0.0
 11
10526.37047264
 21
2813.23992925
 31
0.0
  0
LINE
  5
390
100
AcDbEntity
  8
Esc 1_10
 62
    36
  6
CONTINUOUS
370
    -3
100
AcDbLine
 10
10526.37047264
 20
2813.23992925
 30
0.0
 11
10518.12324187
 21
2811.56000612
 31
0.0
  0
LINE
  5
391
100
AcDbEntity
  8
Esc 1_10
 62
    36
  6
CONTINUOUS
370
    -3
100
AcDbLine
 10
10693.99460712
 20
2628.15526475
 30
0.0
 11
10693.9949409
 21
2591.55207152
 31
0.0
  0
LINE
  5
392
100
AcDbEntity
  8
Esc 1_10
 62
    36
  6
CONTINUOUS
370
    -3
100
AcDbLine
 10
10503.69181572
 20
2673.98404728
 30
0.0
 11
10503.77305629
 21
2672.80560189
 31
0.0
  0
LINE
  5
393
100
AcDbEntity
  8
Esc 1_10
 62
    36
  6
CONTINUOUS
370
    -3
100
AcDbLine
 10
10503.77305629
 20
2672.80560189
 30
0.0
 11
10504.01475581
 21
2671.68926596
 31
0.0
  0
LINE
  5
394
100
AcDbEntity
  8
Esc 1_10
 62
    36
  6
CONTINUOUS
370
    -3
100
AcDbLine
 10
10504.01475581
 20
2671.68926596
 30
0.0
 11
10504.41096282
 21
2670.66252739
 31
0.0
  0
LINE
  5
395
100
AcDbEntity
  8
Esc 1_10
 62
    36
  6
CONTINUOUS
370
    -3
100
AcDbLine
 10
10504.41096282
 20
2670.66252739
 30
0.0
 11
10504.9519214
 21
2669.75066789
 31
0.0
  0
LINE
  5
396
100
AcDbEntity
  8
Esc 1_10
 62
    36
  6
CONTINUOUS
370
    -3
100
AcDbLine
 10
10504.9519214
 20
2669.75066789
 30
0.0
 11
10505.62431135
 21
2668.97614046
 31
0.0
  0
LINE
  5
397
100
AcDbEntity
  8
Esc 1_10
 62
    36
  6
CONTINUOUS
370
    -3
100
AcDbLine
 10
10505.62431135
 20
2668.97614046
 30
0.0
 11
10506.4115762
 21
2668.35801655
 31
0.0
  0
LINE
  5
398
100
AcDbEntity
  8
Esc 1_10
 62
    36
  6
CONTINUOUS
370
    -3
100
AcDbLine
 10
10506.4115762
 20
2668.35801655
 30
0.0
 11
10507.1098467
 21
2667.98706166
 31
0.0
  0
LINE
  5
399
100
AcDbEntity
  8
Esc 1_10
 62
    36
  6
CONTINUOUS
370
    -3
100
AcDbLine
 10
10507.1098467
 20
2667.98706166
 30
0.0
 11
10693.99498208
 21
2587.03562729
 31
0.0
  0
LINE
  5
39A
100
AcDbEntity
  8
Esc 1_10
 62
    36
  6
CONTINUOUS
370
    -3
100
AcDbLine
 10
10693.9949409
 20
2591.55207152
 30
0.0
 11
10503.69181572
 21
2673.98404728
 31
0.0
  0
LINE
  5
39B
100
AcDbEntity
  8
Esc 1_10
 62
    36
  6
CONTINUOUS
370
    -3
100
AcDbLine
 10
10503.69074474
 20
2791.43255427
 30
0.0
 11
10503.69181572
 21
2673.98404728
 31
0.0
  0
LINE
  5
39C
100
AcDbEntity
  8
Esc 1_10
 62
    36
  6
CONTINUOUS
370
    -3
100
AcDbLine
 10
10719.44386291
 20
2606.07114203
 30
0.0
 11
10693.99460712
 21
2628.15526475
 31
0.0
  0
LINE
  5
39D
100
AcDbEntity
  8
Esc 1_10
 62
    36
  6
CONTINUOUS
370
    -3
100
AcDbLine
 10
10719.44386291
 20
2606.07114203
 30
0.0
 11
10719.44325776
 21
2672.43432281
 31
0.0
  0
LINE
  5
39E
100
AcDbEntity
  8
Esc 1_10
 62
    36
  6
CONTINUOUS
370
    -3
100
AcDbLine
 10
10693.99420369
 20
2672.39738528
 30
0.0
 11
10719.44325776
 21
2672.43432281
 31
0.0
  0
LINE
  5
39F
100
AcDbEntity
  8
Esc 1_10
 62
    36
  6
CONTINUOUS
370
    -3
100
AcDbLine
 10
10719.44325776
 20
2672.43432281
 30
0.0
 11
10756.55569539
 21
2691.05450699
 31
0.0
  0
LINE
  5
3A0
100
AcDbEntity
  8
Esc 1_10
 62
    36
  6
CONTINUOUS
370
    -3
100
AcDbLine
 10
10756.55569539
 20
2691.05450699
 30
0.0
 11
10731.10664132
 21
2691.01756946
 31
0.0
  0
LINE
  5
3A1
100
AcDbEntity
  8
Esc 1_10
 62
    36
  6
CONTINUOUS
370
    -3
100
AcDbLine
 10
10719.44386291
 20
2606.07114203
 30
0.0
 11
10756.55650226
 21
2602.57026595
 31
0.0
  0
LINE
  5
3A2
100
AcDbEntity
  8
Esc 1_10
 62
    36
  6
CONTINUOUS
370
    -3
100
AcDbLine
 10
10756.55650226
 20
2602.57026595
 30
0.0
 11
10756.55569539
 21
2691.05450699
 31
0.0
  0
ENDSEC
  0
SECTION
  2
OBJECTS
  0
DICTIONARY
  5
1
100
AcDbDictionary
  3
ACAD_GROUP
350
2
  3
ACAD_MLINESTYLE
350
3
  0
DICTIONARY
  5
2
102
{CDWK_REACTORS
330
1
102
}
100
AcDbDictionary
  0
DICTIONARY
  5
3
102
{CDWK_REACTORS
330
1
102
}
100
AcDbDictionary
  3
STANDARD
350
4
  0
MLINESTYLE
  5
4
102
{CDWK_REACTORS
330
3
102
}
100
AcDbMlineStyle
  2
STANDARD
 70
     0
  3

 62
     0
 51
90.0
 52
90.0
 71
     2
 49
0.5
 62
   256
  6
BYLAYER
 49
-0.5
 62
   256
  6
BYLAYER
  0
ENDSEC
  0
EOF
